Oops, an error
Loading. Please wait.

Jailhouse Rock Live bass

version 1
version 1

Whole song

Interactive

3,955 views 1 this week
no commentswrite comment
1 2 3 4 5
x 4
add to favorites
×
Save as Personal and add changes to this tab that will be seen only by you. Learn more ›
×
You can save this tab as Personal to edit and correct it or add notes. All changes will be seen only by you. Learn more »
launch autoscroll
font size
0
reset
guitar tuner
edit
Autoscroll
slow
fast
+/-
esc
set tempo
stop
Author
Difficulty
Artist:Motley Crue (cover of Elvis)
Song:Jailhouse Rock Live
Album:Girls, Girls, Girls (remastered)
Bassist:Nikki Sixx
Tabber:Dev Fuld

Ok, this is a rad cover of an Elvis Presley, bu the best band on earth...the CRUE!

Key:
* = let it ring

Intro/Verse
F:----|
C:----|
G:----|
D:2-3*|

Chorus
F:---------------|---------------|-----------------------------|
C:--2-5-2---2-5-2|---------------|--4-7-4---2-5-2--------------|
G:3-------3------|--2-5-2---2-5-2|5-------3---------2-5-2---2-5|
D:---------------|3-------3------|----------------3-------3----|

Bridge
F:---------------|---------|
C:---------------|---------|
G:--2-3-4-5-4-3-2|--2-3-4-5|
D:3--------------|3--------|

End
F:----------------------|-----|
C:----------------------|---5*|
G:-----2*-2-3*-3-4*-4-5*|7*---|
D:3*-3------------------|-----|

That's it! This is an awesome cover and I'm 100% sure about this tab. You can figure out 
the order yourself, its not that hard. Any questions or comments, e-mail me at rocklvson@yahoo.com

            
            
Suggest correction
Creating personal tab
Creating personal tab
You can edit any tab online and save it as your Personal.

You can edit, replace or remove any tab part or add personal notes – all changes will be seen only by you.

Personal tabs can be accessed anytime from any device, even offline.
Learn more »
comments
print report bad tab
guest
You may want to rate the tab now too:
select rating
Wanna post a correction for this tab? Suggest correction