Oops, an error
Loading. Please wait.

Red Hot bass

version 1
version 1

Whole song

Interactive

5,652 views 1 this week
no commentswrite comment
1 2 3 4 5
1 last vote to show rating
add to favorites
×
Save as Personal and add changes to this tab that will be seen only by you. Learn more ›
×
You can save this tab as Personal to edit and correct it or add notes. All changes will be seen only by you. Learn more »
launch autoscroll
font size
0
reset
guitar tuner
edit
Autoscroll
slow
fast
+/-
esc
set tempo
stop
Author
Difficulty
Artist:Motley Crue
Song:Red Hot (version 1)
Album:Shout at the Devil
Bassist:Nikki Sixx
Tabber:Dev Fuld

This is an awesome Crue classic. I'm putting up two versions, this is the 
first.

Key:
* = let it ring

Intro
G:-----------------------------------------------------------------------|
D:-----------------------------------------------------------------------|
A:3-555555555555555-3-555555555555555-3-555555555555555-3-555555555555555|
E:-----------------------------------------------------------------------|

G:-----------------------------------------------------------------------|
D:-----------------------------------------------------------------------|
A:3-555555555555555-3-555555555555555-3-555555555555555-3-555555555555555|
E:-----------------------------------------------------------------------|

G:----------------------------------------------------------------------|
D:----------------------------------------------------------------------|
A:3-555555555555555-3-555555555555555-3-555555555555555-3333333333333333|
E:----------------------------------------------------------------------|

G:----------------------------------------------------------------------|
D:----------------------------------------------------------------------|
A:3-555555555555555-3-555555555555555-3-555555555555555-3333333333333333|
E:----------------------------------------------------------------------|

G:-----------------|
D:-----------------|
A:3-555555555555555|
E:-----------------|

G:---------------------------------------------------------------|
D:----------3-3-3-----------3-3-3-----------3-3-3-----------3-3-3|
A:3-5555555-------3-5555555-------3-5555555-------3-5555555------|
E:---------------------------------------------------------------|

Verse
G:--------------------------------------------------------|
D:-------------2-3--------------------------------2-3-----|
A:5*--3-5*--3*-----3-555555555555555-5*--3-5*--3*-----3-5*|
E:--------------------------------------------------------|

Pre-Chorus
G:--------------------------------------------------------------------|
D:--------------------------------------------------------------------|
A:1*-3*-5555555555-5-3-1*-3*-5555555555-5-3-1*-3*-5555555555-5-3-1*-3*|
E:--------------------------------------------------------------------|

G:----------------------------------|
D:----------------------------------|
A:1*-0*----------1---1---1----------|
E:------33333333---3---3---333333333|

Chorus
G:----------------------------------------------------------------------|
D:----------------------------------------------------------------------|
A:3-555555555555555-3-555555555555555-3333333333333333-3-555555555555555|
E:----------------------------------------------------------------------|

G:----------------------------------------------------------------------|
D:----------------------------------------------------------------------|
A:3-555555555555555-3-555555555555555-3333333333333333-3-555555555555555|
E:----------------------------------------------------------------------|

Verse

Pre-Chorus

Chorus

Solo
G:--------------------------------------------------------------------|
D:--------------------------------------------------------------------|
A:1*-3*-5555555555-5-3-1*-3*-5555555555-5-3-1*-3*-5555555555-5-3-1*-3*|
E:--------------------------------------------------------------------|

G:----------------------------------|
D:----------------------------------|
A:1*-0*----------1---1---1----------|
E:------33333333---3---3---333333333|

Last Chorus (end)
G:---------------------------------------------------------------|
D:----------3-3-3-----------3-3-3-----------3-3-3-----------3-3-3|
A:3-5555555-------3-5555555-------3-5555555-------3-5555555------|
E:---------------------------------------------------------------|

G:-------------------------------------------|
D:-----3-3-3------3-3-3------3-3-3------3-3-3|
A:3-5--------3-5--------3-5--------3-5-------|
E:-------------------------------------------|

That's it. The timing may be a little confusing, so listen to the song if you 
need to. I've already put it in order for you. Any questions or comments, 
e-mail me at rocklvson@yahoo.com

            
            
Suggest correction
Creating personal tab
Creating personal tab
You can edit any tab online and save it as your Personal.

You can edit, replace or remove any tab part or add personal notes – all changes will be seen only by you.

Personal tabs can be accessed anytime from any device, even offline.
Learn more »
Give kudos to tab author, rate the tab!
1 2 3 4 5
comments
print report bad tab
guest
You may want to rate the tab now too:
select rating
Wanna post a correction for this tab? Suggest correction