Oops, an error
Loading. Please wait.

Shout At The Devil bass

version 2
version 2

Whole song

Interactive

3,372 views 3 this week
2 commentsread comments
1 2 3 4 5
x 4
add to favorites
×
Save as Personal and add changes to this tab that will be seen only by you. Learn more ›
×
You can save this tab as Personal to edit and correct it or add notes. All changes will be seen only by you. Learn more »
launch autoscroll
font size
0
reset
guitar tuner
backing track
0:00
0:00
edit
Autoscroll
slow
fast
+/-
esc
set tempo
stop
Author
Difficulty
Artist:Motley Crue
Song:Shout At The Devil '97
Album:Generation Swine
Bassist:Nikki Sixx
Tabber:Dev Fuld

I think I like this version better then the original version, but they both 
rock.

Key:
* = let it ring
x = mute
/ = slide up

Intro
G:------------------|--------------------------------------------------------------5-3|
D:10*--10*--10*--10*|----------------------------------------------------------3------|
A:10*--10*--10*--10*|------------------------------------------------------3-5---5----|
D:------------------|5-555-555-555-555-555-555-555-555-555-555-555-555-555------------|

G:------------------------------5-3|------------------------------5-3|
D:--------------------------3------|--------------------------3------|
A:-----1------3------1--3-5---5----|-----1------3------1--3-5---5----|
D:5-5-5--5-5-5--5-5-5--------------|5-5-5--5-5-5--5-5-5--------------|

Verse
G:-----------------|--------------9-88|-----------------|----------------|
D:-----------------|--------------9-88|-----------------|----------------|
A:---------------1*|------------------|---------------3*|----------1*--0*|
D:5-5--6-6--5-5----|5-5--6-6--5-5-----|5-5--6-6--5-5----|5-5--6-6--------|

Chorus 1
G:------------------------------5-3|------------------------------5-3|
D:--------------------------3------|--------------------------3------|
A:-----1------3------1--3-5---5----|-----1------3------1--3-5---5----|
D:5-5-5--5-5-5--5-5-5--------------|5-5-5--5-5-5--5-5-5--------------|

Verse

Chorus 1

Chorus 1

Bridge
G:----------------------------------|----------------------------------|
D:----------------------------------|----------------------------------|
A:----------------------------------|----------------------------------|
D:0-0-3--0-0-2--0-0-1--0-3-0-5-0-6-5|0-0-3--0-0-2--0-0-1--0-3-0-4-0-5-6|

G:-----------------------------------|
D:-----------------------5---6---7-8*|
A:-----------------------------------|
D:0-0-3--0-0-5--0-0-3--6---7---8-----|

Verse

Chorus 1

Chorus 2
G:-----------------------------|-----------------------------|
D:-----------------------------|-----------------------------|
A:-----------------------------|-----------------------------|
D:5555-9-555-555-9-55-555-9-555|5555-9-555-555-9-55-555-9-555|

G:-----------------------------|-----------------------------|
D:-----------------------------|-----------------------------|
A:-----------------------------|-----------------------------|
D:5555-9-555-555-9-55-555-9-555|5555-9-555-555-9-55-555-9-555|

Chorus 3
G:--------------------------------------|
D:--------------------------------------|
A:--------------------------------------|
D:/17--/17--/17--/17--/17--/17--/17--/17|

Chorus 1

Chorus 4
G:----------------------------------5-3|----------------------------------5-3|
D:------------------------------3------|------------------------------3------|
A:-----1-------3-------1----3-5---5----|-----1-------3-------1----3-5---5----|
D:5--55--555-55--555-55--5-------------|5--55--555-55--555-55--5-------------|

End
G:---------------------------|---------------------------|---------------------------|
D:---------------------------|---------------------------|---------------------------|
A:---------------------------|---------------------------|---------------------------|
D:5-5xxxx6-6xxxx7-7xxxx8x9x10|5-5xxxx6-6xxxx7-7xxxx8x9x10|5-5xxxx6-6xxxx7-7xxxx8x9x10|

G:---------------------------|
D:---------------------------|
A:---------------------------|
D:5-5xxxx6-6xxxx7-7xxxx8x9x10|

That's it. Awesome song, there is some more muting in it than I put. You can 
throw the muting in if you want, sounds fine without it. I already put it in 
order for you. Any questions or comments, e-mail me at rocklvson@yahoo.com

            
            
Suggest correction
Creating personal tab
Creating personal tab
You can edit any tab online and save it as your Personal.

You can edit, replace or remove any tab part or add personal notes – all changes will be seen only by you.

Personal tabs can be accessed anytime from any device, even offline.
Learn more »
comments
print report bad tab
2 comments total.
0 reply
winterburn69 72 Sep 21, 2008 05:24 PM

Since this is a tab for Shout at the Devil '97, you should resubmit it as Shout at the Devil '97, and not just Shout at the Devil, and this tab is so awesome.

0 reply
-Ozz- 10 Mar 05, 2009 12:54 PM

a job well done mate!

guest
You may want to rate the tab now too:
select rating
Wanna post a correction for this tab? Suggest correction