Oops, an error
Loading. Please wait.

Smoke The Sky bass

version 1
version 1

Whole song

Interactive

1,493 views 3 this week
no commentswrite comment
1 2 3 4 5
2 more votes to show rating
add to favorites
×
Save as Personal and add changes to this tab that will be seen only by you. Learn more ›
×
You can save this tab as Personal to edit and correct it or add notes. All changes will be seen only by you. Learn more »
launch autoscroll
font size
0
reset
guitar tuner
edit
Autoscroll
slow
fast
+/-
esc
set tempo
stop
Author
Difficulty
Artist:Motley Crue
Song:Smoke The Sky
Album:Motley Crue
Bassist:Nikki Sixx
Tabber:Dev Fuld

This is such an awesome and rockin tune to play. It's not a classic Crue tune, 
because Vince Neil isn't the singer, and it was during 1994, but it still 
rocks.

Key:
* = let it ring

*Guitar Intro*

Intro
F:-----------------------------|-----------------------------|------------------------|
C:-----------------------------|-----------------------------|------------------------|
G:-----------------------------|-----------------------------|------------------------|
C:0--1-2-0-3-4-0-3-4-0-4-5--6-7|0--1-2-0-3-4-0-3-4-0-4-5--6-7|0--1-2-0-2-3-0-3-4-0-6-5|

F:-----------------------------|-----------------------------|
C:-----------------------------|-----------------------------|
G:-----------------------------|-----------------------------|
C:0--1-2-0-2-3-0-3-4-0-4-5--6-7|0--1-2-0-2-3-0-3-4-0-4-5--6-7|

F:-----------------------------|-----------------------------|
C:-----------------------------|-----------------------------|
G:-----------------------------|-----------------------------|
C:0--1-2-0-2-3-0-3-4-0-4-5--6-7|0--1-2-0-2-3-0-3-4-0-4-5--6-7|

Verse
F:----------|-----------------------------------------------------------------|
C:----------|-----------------------------------------------------------------|
G:----------|-----------------------------------------------------------------|
C:0*----0-0*|0-0-0-0-0-0-0-0-0-0-0-0-0-0-0-0-0-0-0-0-0-0-0-0-0-0-0-0-0-0-0-0-0|

Chorus
F:--------------|-----------------------------------------------|
C:--------------|-----------------------------------------------|
G:0*--3*------0*|--3*-------------------------------------------|
C:--------5*----|-----5*-3*-0*-5-3-0--1-2-0-2-3-0-3-4-0-4-5--6-7|

F:-----------------------------|-----------------------------|
C:-----------------------------|-----------------------------|
G:-----------------------------|-----------------------------|
C:0--1-2-0-2-3-0-3-4-0-4-5--6-7|0--1-2-0-2-3-0-3-4-0-4-5--6-7|

F:-----------------------------|-----------------------------|
C:-----------------------------|-----------------------------|
G:-----------------------------|-----------------------------|
C:0--1-2-0-2-3-0-3-4-0-4-5--6-7|0--1-2-0-2-3-0-3-4-0-4-5--6-7|

Verse

Chorus

Solo
F:-------------------------|-----------------------------|-----------------------------|
C:-------------------------|-----------------------------|-----------------------------|
G:-------------------------|-----------------------------|-----------------------------|
C:0*----0-0*----0*-----0-0*|0--1-2-0-2-3-0-3-4-0-4-5--6-7|0--1-2-0-2-3-0-3-4-0-4-5--6-7|

F:-----------------------------|-------------------------|
C:-----------------------------|-------------------------|
G:-----------------------------|-------------------------|
C:0--1-2-0-2-3-0-3-4-0-4-5--6-7|0--1-2-0-2-3-0-3-4--5-6-7|

F:-----------------------|-----------------------|-----------------------|
C:-----------------------|-----------------------|-----------------------|
G:-----------------------|-----------------------|-----------------------|
C:0-1-2--2--0-3--4-5--6-7|0-1-2--2--0-3--4-5--6-7|0-1-2--2--0-3--4-5--6-7|

F:-----------------------|-----------------------|-----------------------|
C:-----------------------|-----------------------|-----------------------|
G:-----------------------|-----------------------|-----------------------|
C:0-1-2--2--0-3--4-5--6-7|0-1-2--2--0-3--4-5--6-7|0-1-2--2--0-3--4-5--6-7|

F:-----------------------|-----------------------|
C:-----------------------|-----------------------|
G:-----------------------|-----------------------|
C:0-1-2--2--0-3--4-5--6-7|0-1-2--2--0-3--4-5--6-7|

After
F:----------------------|
C:----------------------|
G:0*---3*---------------|
C:--------5*-3*-0*-5-3-0|

Break

Chorus

F:---------------------------------------------|-----------------------------|
C:---------------------------------------------|-----------------------------|
G:3*-------------------------------------------|-----------------------------|
C:---5*-3*-0*-5-3-0--1-2-0-2-3-0-3-4-0-4-5--6-7|0--1-2-0-2-3-0-3-4-0-4-5--6-7|

End
F:----------------------------------------------------|
C:----------------------------------------------------|
G:3*---------------3*---------------3*----------------|
C:---5*-3*-0*-5-3-----5*-3*-0*-5-3-----5*-3*-0*-5-3-0*|

That's it. This tune is fun to play, because it's fast and kickass. I already 
put it in order for you. Any questions or comments, e-mail me at rocklvson@yahoo.com

            
            
Suggest correction
Creating personal tab
Creating personal tab
You can edit any tab online and save it as your Personal.

You can edit, replace or remove any tab part or add personal notes – all changes will be seen only by you.

Personal tabs can be accessed anytime from any device, even offline.
Learn more »
Give kudos to tab author, rate the tab!
1 2 3 4 5
comments
print report bad tab
guest
You may want to rate the tab now too:
select rating
Wanna post a correction for this tab? Suggest correction