Oops, an error
Loading. Please wait.

Starry Eyes bass

version 1
version 1

Whole song

Interactive

3,932 views 1 this week
1 commentread comment
1 2 3 4 5
x 3
add to favorites
×
Save as Personal and add changes to this tab that will be seen only by you. Learn more ›
×
You can save this tab as Personal to edit and correct it or add notes. All changes will be seen only by you. Learn more »
launch autoscroll
font size
0
reset
guitar tuner
edit
Autoscroll
slow
fast
+/-
esc
set tempo
stop
Author
Difficulty
Artist:Motley Crue
Song:Starry Eyes
Album:Too Fast for Love
Bassist:Nikki Sixx
Tabber:Dev Fuld

This is a really good song, one of my personal favorites. This tab is totally correct.

Key:
x = times a number
* = let it ring

Intro
G:---------|---------|
D:---------|---------|
A:5x16-3x16|5x16-3x16|
E:---------|---------|

Verse
G:-------------------|-------------------|
D:-------------------|-------------------|
A:5x16-3x16------3x16|5x16-3x16------3x16|
E:----------6x16-----|----------6x16-----|

Chorus
G:-|R|---|R|---|R|---|---|R|-|R|---|R|---|R|---|---|
D:-|E|---|E|---|E|---|---|E|-|E|---|E|---|E|---|---|
A:5|S|1-3|S|1-3|S|1-5|---|S|5|S|1-3|S|1-3|S|1-5|---|
E:-|T|---|T|---|T|---|6-5|T|-|T|---|T|---|T|---|6-5|

Intro

Verse

Chorus

This is the guitar part, if you wanna play it.
G:--------7------|---------------|
D:5-8-7-8---8-7-8|--------7------| (You'll hear the changed between those 
A:---------------|5-8-7-8---8-7-8|  riffs)
E:---------------|---------------|

Bass part
G:---|R|-|-----------|----|-----------|----|-----------|---|
D:---|E|-|-----------|0x16|-----------|0x16|-----------|---|
A:---|S|-|--0-1-3-1-0|----|--0-1-3-1-0|----|--0-1-3-1-0|5x9|
E:3-3|T|3|3----------|----|3----------|----|3----------|---|

Solo
G:----------------------------------------------|
D:-------------------------------2-3-2----------| <--
A:5x16-3x16-1x16-3-5-3---0-1-0---------3-3-5-3--| <--x2
E:---------------------5-------1---------------5| <--/

After Solo
G:----|----|--|
D:----|----|--|
A:5*--|5*--|5*|
E:--5*|--5*|--|

Chorus

End:
G:---------|
D:---------|
A:5x16-3x16| Repeat through fade out
E:---------|

That's it. This is an aweosme song, took me a little while to figure out though. This tab 
should be very close to correct. This tab is already in order. Any questions or comments, 
e-mail me at rocklvson@yahoo.com

            
            
Suggest correction
Creating personal tab
Creating personal tab
You can edit any tab online and save it as your Personal.

You can edit, replace or remove any tab part or add personal notes – all changes will be seen only by you.

Personal tabs can be accessed anytime from any device, even offline.
Learn more »
Give kudos to tab author, rate the tab!
1 2 3 4 5
comments
print report bad tab
1 comment total.
0 reply
AaronDrFeelgood 124 Oct 12, 2007 11:11 PM

dude, this is NOT totally correct, your missing scaling parts during the verse's, otherwise it's mostly correct, but it's not TOTALLY correct.

guest
You may want to rate the tab now too:
select rating
Wanna post a correction for this tab? Suggest correction