Oops, an error
Loading. Please wait.

Sticky Sweet bass

version 1
version 1

Whole song

Interactive

1,430 views 1 this week
no commentswrite comment
1 2 3 4 5
1 last vote to show rating
add to favorites
×
Save as Personal and add changes to this tab that will be seen only by you. Learn more ›
×
You can save this tab as Personal to edit and correct it or add notes. All changes will be seen only by you. Learn more »
launch autoscroll
font size
0
reset
guitar tuner
backing track
0:00
0:00
edit
Autoscroll
slow
fast
+/-
esc
set tempo
stop
Author
Difficulty
Artist:Motley Crue
Song:Sticky Sweet
Album:Dr.Feelgood
Bassist:Nikki Sixx
Tabber:Dev Fuld

This is an awesome classic Crue tune that everybody should know, because it's off one 
of the best Crue albums...then again all the Crue albums are good.

Key:
x = times number
* = let it ring
r = rest
\ = slide up

Intro (play it with the guitar if you want)
F:--0---2-0---------2--|
C:2---2-----2----------|
G:------------0-3-4---0|
D:---------------------|

Intro intro
F:-----------|---------------------|-------------------------|
C:--------5-4|---------------------|7------7------7------7---|
G:0-r-0-r----|0--0--0--0--0--0-----|--4--4---5--5---6--6---7*|
D:-----------|-----------------3-2-|-------------------------|

Verse
F:-----------|
C:-----------|
G:0--0------0|
D:-----3--3--|

Chorus
F:--------------9-9-9|--------------------|
C:-------------------|--------------------|
G:7--7-7--7-7--------|0--0--0--0--0--0----|
D:-------------------|-----------------3-2|

Bridge
F:--7------7-----------5---6---7|----------------------------|
C:---------------5-5------------|----------------------------|
G:5----3\5---5-------3---4---5--|9-10-11--7-8-9--5-6-7--3-4-5|
D:-------------3----------------|----------------------------|

That's it. It's pretty easy when you get the hang of it. You can figure out the order your-self. 
Any questions or comments, e-mail me at rocklvson@yahoo.com

            
            
Suggest correction
Creating personal tab
Creating personal tab
You can edit any tab online and save it as your Personal.

You can edit, replace or remove any tab part or add personal notes – all changes will be seen only by you.

Personal tabs can be accessed anytime from any device, even offline.
Learn more »
Give kudos to tab author, rate the tab!
1 2 3 4 5
comments
print report bad tab
guest
You may want to rate the tab now too:
select rating
Wanna post a correction for this tab? Suggest correction