Oops, an error
Loading. Please wait.

Youre All I Need bass

version 1
version 1

Whole song

Interactive

4,376 views 1 this week
3 commentsread comments
1 2 3 4 5
x 7
add to favorites
×
Save as Personal and add changes to this tab that will be seen only by you. Learn more ›
×
You can save this tab as Personal to edit and correct it or add notes. All changes will be seen only by you. Learn more »
launch autoscroll
font size
0
reset
guitar tuner
edit
Autoscroll
slow
fast
+/-
esc
set tempo
stop
Author
Difficulty
Artist:Motley Crue
Song:You're All I Need
Album:Girls, Girls, Girls
Bassist:Nikki Sixx
Tabber:Dev Fuld

I received a request for this song. It's an awesome ballad. Here ya go, and 
it may be hard to follow the timing, so listen to the song for the exact timing.

Key:
* = let it ring

Intro
G:------------------------------------------------------------------------------|
D:----------------------------1-------------------------------------------------|
A:-------------4-----------------------------4---------------8--8*--6--6*--4--4*|
E:4*-4*--4*-4*---2*-2*--2*-2*---4*-4*--4*-4*---2*-2*--2*-2*---------------------|

Verse
G:-------------------------------------------------------|
D:-------------------------------------------------------|
A:------6*-------------------------6*--------------------|
E:2*----------7*----7*-6*-4*-2*----------7*----7*-6*-4*2*|

Chorus
G:---------------------------------------------------------------------|
D:---------------------------------------------------------------------|
A:2--2*----4--4*----6--6*----6*-4*-2*--2*----4--4*----6--6*----6*-4*-2*|
E:---------------------------------------------------------------------|

G:--------------------------------------------|
D:--------------------------------------------|
A:--2*----4--4*----6--6*----6*-4*-2*--2*----4*|
E:--------------------------------------------|

Verse

Chorus

Solo
G:-------------------------------------------------------------------------------------|
D:----------------------------1--------------------------------------------------------|
A:-------------4-----------------------------4---------------8--8*--6--6*--4--4*--4--4*|
E:4*-4*--4*-4*---2*-2*--2*-2*---4*-4*--4*-4*---2*-2*--2*-2*----------------------------|

Chorus (fade out)

That's it. This is a good song, and the piano part gives it a good sound. I already 
put it in order. Any questions or comments, e-mail me at rocklvson@yahoo.com

            
            
Suggest correction
Creating personal tab
Creating personal tab
You can edit any tab online and save it as your Personal.

You can edit, replace or remove any tab part or add personal notes – all changes will be seen only by you.

Personal tabs can be accessed anytime from any device, even offline.
Learn more »
comments
print report bad tab
3 comments total.
0 reply
PUNKfromNORWAY 113 Sep 18, 2007 10:51 AM

good tab!!!!!!!!!!!!!
I have seen a lot of your tabs.
I think all your tabs, wich i have seen is 100% correct
Rock On!!!

0 reply
AaronDrFeelgood 124 Oct 05, 2007 11:29 PM

Dude, it's almost right, you have the right notes, but Sixx always tunes down a half step, so it's

Gb----------------------------------------
Db----------------------------------------
Ab----------------5*----------------------
Eb--5*-5*--5*-5*-----3*-3*--3*-3*--0*--5*-,

0 reply
winterburn69 72 Apr 28, 2009 07:02 PM

Sixx has never tuned half step down. It's rarely standard, sometimes drop D, but usually D standard (D-G-C-F). With Sixx:A.M, it's drop D.

guest
You may want to rate the tab now too:
select rating
Wanna post a correction for this tab? Suggest correction