Oops, an error
Loading. Please wait.

Relax tab

version 1
version 1

Whole song

by Maná
6,664 views 33 this week
3 commentsread comments
1 2 3 4 5
2 more votes to show rating
add to favorites
×
Save as Personal and add changes to this tab that will be seen only by you. Learn more ›
×
You can save this tab as Personal to edit and correct it or add notes. All changes will be seen only by you. Learn more »
launch autoscroll
font size
0
reset
how to read this tab
guitar tuner
edit
Autoscroll
slow
fast
+/-
esc
set tempo
stop
Author
Difficulty
Relax by Mana:

Intro:

e|------------------------------------------|x4
B|------------------------------------------|
G|--7-9---10-----9-7-----7-9-7----7-9-7-----|
D|------7-------------10-------10-------10--|
A|------------------------------------------|
E|------------------------------------------|


Im not too sure about this part but here it is:

e|----------------------------------------------------|x2
B|----------------------------------------------------|
G|-------------------------------------9-9--11-11-11--|
D|--9--11---10-10--12-12-12----9--11---7-7--9--9--9---|
A|--7--9----8--8---10-10-10----7--9-------------------|
E|----------------------------------------------------|

e|------------------------------------------|x2
B|------------------------------------------|
G|--7-9---10-----9-7-----7-9-7----7-9-7-----|
D|------7-------------10-------10-------10--|
A|------------------------------------------|
E|------------------------------------------|

e|----------------------------------------------------|x2
B|----------------------------------------------------|
G|-------------------------------------9-9--11-11-11--|
D|--9--11---10-10--12-12-12----9--11---7-7--9--9--9---|
A|--7--9----8--8---10-10-10----7--9-------------------|
E|----------------------------------------------------|

e|---------------------|x2
B|---------------------|
G|---------------------|
D|---------------------|
A|--9x5--7x5--5x10-----|
E|--7----5----3--------|
    .    .    . 

*slowly release palmuting on the last one.
[listen to the song to get it better]


e|------------------------------------------|x4
B|------------------------------------------|
G|--7-9---10-----9-7-----7-9-7----7-9-7-----|
D|------7-------------10-------10-------10--|
A|------------------------------------------|
E|------------------------------------------|


e|----------------------------------------------------|x4
B|----------------------------------------------------|
G|-------------------------------------9-9--11-11-11--|
D|--9--11---10-10--12-12-12----9--11---7-7--9--9--9---|
A|--7--9----8--8---10-10-10----7--9-------------------|
E|----------------------------------------------------|



e|---------------------|x2
B|---------------------|
G|---------------------|
D|---------------------|
A|--9x5--7x5--5x10-----|
E|--7----5----3--------|
    .    .    . 

*slowly release palmuting on the last one.
[listen to the song to get it better]


e|------------------------------------------|x4
B|------------------------------------------|
G|--7-9---10-----9-7-----7-9-7----7-9-7-----|
D|------7-------------10-------10-------10--|
A|------------------------------------------|
E|------------------------------------------|


Im still working on the next part and the solo.....I'll let you
know when I figure it out.


e|---------------------|x2
B|---------------------|
G|---------------------|
D|---------------------|
A|--9x5--7x5--5x10-----|
E|--7----5----3--------|
    .    .    . 

*slowly release palmuting on the last one. 
[listen to the song to get it better]


e|------------------------------------------|
B|------------------------------------------|
G|--7-9---10-----9-7-----7-9-7----7-9-7-----|
D|------7-------------10-------10-------10--|
A|------------------------------------------|
E|------------------------------------------|

This is played till the end with a few changes here and there and
some chords in the background. Im still working on it
so far the tab sounds ok let me know what you think por favor!
Its my first tab so dont expect it to be perfect.

tab by Junior, 
sf49junior@yahoo.com

            
            
Suggest correction
Creating personal tab
Creating personal tab
You can edit any tab online and save it as your Personal.

You can edit, replace or remove any tab part or add personal notes – all changes will be seen only by you.

Personal tabs can be accessed anytime from any device, even offline.
Learn more »
Give kudos to tab author, rate the tab!
1 2 3 4 5
comments
print report bad tab
3 comments total.
0 reply
soul_power 451 Aug 06, 2007 09:19 PM

Its not very accurate the intro sounds more like...
----------------------------------
9------10-9-7----7-9-7----7-9-7---
--10-7--------10-------10-------10
----------------------------------
----------------------------------

The next chord sequence sounds wrong all together but i havnt figured that out so i have no room to talk. The intro might not be exact but i think it sounds more right than the one you have. No offence or anything, just trying to let you know

0 reply
soul_power 451 Aug 06, 2007 09:26 PM

Shit, i just realized that i forgot the high e, it should be...my bad.
----------------------------------
----------------------------------
9------10-9-7----7-9-7----7-9-7---
--10-7--------10-------10-------10
----------------------------------
----------------------------------

0 reply
dharmamonster72 58 Jul 17, 2010 01:51 AM

INTRO/ CHORUS (DISTORTION +FLange?)
--------------------------------------|---------------------
--------------------------------------|--------------------
9------10~~-9-7----7-9-----7-9--------|9------10~~-9-7------
--10-7----------10----10-7-----10-7---|--10-7----------10-----------------------------------------|-----------------------------------------------------------|---------------------

---------------------------------------||----------------------------------------------------------||-------------------
9------10~~-9-7----7-9-7----7-9-7-----o||-------------------
--10-7----------10-------10-------10--o||-------------------
---------------------------------------||-------------------
---------------------------------------||-------------------

VERSE CHORDS (CLEAN + reggae strum))

--5-----5------7-----8----|--5-----5------7-----5-----
--5-----6------8-----10---|--5-----6------8-----5-----
--5-----5------7-----9----|--5-----5------7-----5-----
--7-----7------9----(7)---|--7-----7------9-----7-----
--------------------------|---------------------------
--------------------------|---------------------------

Am F G Am Am F G Am

PRE-CHORUS (w/ DISTORTION)

--------------------------|---------------------------
--------------------------|---------------------------
--------------------------|---------------------------
-5-------5-----2----------|--5-------5-----9----------
-3-x8----2-x8--0--x15---2-|--3-x8----2-x8--7-x16------
--------------------------|---------------------------
pm_ _ _ _ _ _ _ __ _ _| pm_ _ _ _ _ _ _ _| >>>>

BRIDGE CHORDS

A5 G5 F C5 E5 (VII FRET)

guest
You may want to rate the tab now too:
select rating
Wanna post a correction for this tab? Suggest correction