Oops, an error
Loading. Please wait.

A Fart To Remember bass

246 views 3 this week
no commentswrite comment
1 2 3 4 5
3 more votes to show rating
add to favorites
×
Save as Personal and add changes to this tab that will be seen only by you. Learn more ›
×
You can save this tab as Personal to edit and correct it or add notes. All changes will be seen only by you. Learn more »
launch autoscroll
font size
0
reset
guitar tuner
edit
Autoscroll
slow
fast
+/-
esc
set tempo
stop
Difficulty
                         A FART 2 REMEMBERS

Verse (i ate your face but it blew up)
F#---------------------------------------------------|
C#---------------------------------------------------|
G#---------------------------------------------------|
C#--0---0-0-0-0-0-0-10/12\10-0-0--3-0-1--------------|

Pre-chorus (i ate your eyes but they blew up)
F#----------------------------------------------56544777745774745474755775447 ---|
C#-------------------------------------------------------------------------------|
G#-------------------------------------------------------------------------------|
C#--8-8-8-5-5-5-4-4-4-7-7-7-0-0-1-0----------------------------------------------|

Chorus    (the assid came out i u get drift)
F#-----------------675-------------------------------|
C#--------4315---------5433456---------------------55|
G#---------------------------------------582---------|
C#--0-12-0--10-0-12-0-10-0-12/13-13-13---------------|
          (i remember that fart from the very first whiff)
F#------57---------------------74--------------------|
C#---------------------------45329085----------------|
G#---------------------------------------------------|
C#--0-12-0--10-0-12-0-10-0-12-0-8--------------------|
          (it was a fart to rember, a fart to remember, in my head!)
F#---892485098746------------------------------------|
C#------------------------899909--90-9-0-------------|
G#---------------------------------------------------|
C#--0-12-0--10-0-12-0-10-0-12/13-13-13---------------|
       yaaaaaaaaaaaaaaaaaaaaaaaaaaaaaaaay
F#---------------------------------------------------|
C#---------------------------------------------------|
G#---------------------------------------------------|
C#--0-12-0--10-0-12-0-8-8-8-8-8\7--------------------|
        ppppooooooooooooooooooooooooooooooooop
Break
F#---------------------------------------------------|
C#---------------------------------------------------|
G#---------------------------------------------------|
C#--0-0-0-0--0-0-0-10/12-0-0-0--0-0------------------|
       craaaaaaaaaaaaaaaaaaaaaap
Break 1
F#---------------------------------------------------|
C#---------------------------------------------------|
G#---------------------------------------------------|
C#--0-0-0-0--0-0-0-10/12-0-0-0--3-0-1----------------|
             bloooooooooooooooooooood
Break 2
F#---------------|
C#---------------|
G#---------------|
C#--/12-0-0-0----|
         fun run fun fun fun                                          x3
F#---------------------------------------------------|
C#---------------------------------------------------|
G#---------------------------------------------------|
C#--0-0-0-0--0-0-0-8~8-8-8-8-8-10-10-10--------------|


(it was a fart to rember, a fart to remember, in my head!)
F#---------------------------------------------------|
C#---------------------------------------------------|
G#---------------------------------------------------|
C#--0-0-0-0--12--0-12~12-----------------------------|

  hi my names fatass monkey                                               x3
F#---------------------------------------------------|
C#---------------------------------------------------|
G#---------------------------------------------------|
C#--0-0-0-0-0-0-0-8~8-8-8-8-8-10-10-10---------------|
                   i eat crap 4 bgagiriutrlfuistru

F#---------------------------------------------------|
C#---------------------------------------------------|
G#---------------------------------------------------|
C#--0-0-0-0-12--0-12~12-0-0-0--12--12----------------|
yes u woooooooooooooooooooooooooooooooooldadad
F#---------------------------------------------------|
C#---------------------------------------------------|
G#---------------------------------------------------|
C#--0-12-0--10-0-12-0-8-8-8-8-8----------------------|
    the answer is poop                                            x3
F#---------------------------------------------------|
C#---------------------------------------------------|
G#---------------------------------------------------|
C#--0-12-0--10-0-12-0-10-0-12/13--13-13--------------|
    hell ya ya ya hell ya
F#---------------------------------------------------|
C#---------------------------------------------------|
G#---------------------------------------------------|
C#--0-12-0--10-0-12-0-8-8-8-8-8----------------------|
   tat tast goudlefart
F#---------------------------------------------------|
C#---------------------------------------------------|
G#---------------------------------------------------|
C#--0-12-0--10-0-12-0-10-0--12/13-13/----------------|

            
            
Suggest correction
Creating personal tab
Creating personal tab
You can edit any tab online and save it as your Personal.

You can edit, replace or remove any tab part or add personal notes – all changes will be seen only by you.

Personal tabs can be accessed anytime from any device, even offline.
Learn more »
Give kudos to tab author, rate the tab!
1 2 3 4 5
comments
print report bad tab
guest
Wanna post a correction for this tab? Suggest correction