Oops, an error
Loading. Please wait.
We have an official 155 tab made by UG professional guitarists. Check out the tab »
×
by +44
31,239 views 18 this week
11 commentsread comments
1 2 3 4 5
x 28
add to favorites
×
Save as Personal and add changes to this tab that will be seen only by you. Learn more ›
×
You can save this tab as Personal to edit and correct it or add notes. All changes will be seen only by you. Learn more »
launch autoscroll
font size
0
reset
how to read this tab
guitar tuner
edit
Autoscroll
slow
fast
+/-
esc
set tempo
stop
Author
Tuning: Standard 

[Intro]  (Gtr 1) (2x)   Time: (0:00)
e|-----------------------|
B|(16x)---(16x)----------|
G|-10--------6-----------|
D|-10--------6-----------|
A|-8---------4-----------|
E|-----------------------|

        (Gtr 2) (2x)
e|------------8--------8---------9--------9-|
B|---------9--------9---------9--------9----|
G|----10--------10--------10-------10-------|
D|------------------------------------------|
A|------------------------------------------|
E|------------------------------------------|
(Make sure that notes don't overlap)

[Verse](Gtr 1) (2x)           (0:11)
e|----------------------------|
B|(16x)---(16x)---(16x)--(16x)|
G|-10------6------10------8---|
D|-10------6------10------8---|
A|-8-------4------8-------6---|
E|----------------------------|

       (Gtr 2) (1x)           (0:24)
e|------------8--------8---------9--------9-----------6----------6--|
B|---------9--------9---------9--------9-----------8--------8-------|
G|----10--------10--------10-------10----------8---------8----------|
D|------------------------------------------------------------------|
A|------------------------------------------------------------------|
E|------------------------------------------------------------------|

[Chorus] (Gtr 1)              (0:37)
e|----------------------------|
B|(16x)--(16x)--(16x)--(16x)--|
G|----------------------6-----|
D|--6-----5------3------6-----|
A|--6-----6------3------4-----|
E|--4-----3------1------------|

e|---------------------------------|
B|(16x)--(16x)--(16x)--(8x)--(8x)--|
G|----------------------6----8-----|
D|--6-----5------3------6----8-----|
A|--6-----6------3------4----6-----|
E|--4-----3------1-----------------|

[Intro]  (Gtr 1) (2x)  
e|-----------------------|
B|(16x)---(16x)----------|
G|-10--------6-----------|
D|-10--------6-----------|
A|-8---------4-----------|
E|-----------------------|

        (Gtr 2) (2x)
e|------------8--------8---------9--------9-|
B|---------9--------9---------9--------9----|
G|----10--------10--------10-------10-------|
D|------------------------------------------|
A|------------------------------------------|
E|------------------------------------------|
(Make sure that notes don't overlap)

[Verse](Gtr 1) (2x)         
e|----------------------------|
B|(16x)---(16x)---(16x)--(16x)|
G|-10------6------10------8---|
D|-10------6------10------8---|
A|-8-------4------8-------6---|
E|----------------------------|

       (Gtr 2) (1x)         
e|------------8--------8---------9--------9-----------6----------6--|
B|---------9--------9---------9--------9-----------8--------8-------|
G|----10--------10--------10-------10----------8---------8----------|
D|------------------------------------------------------------------|
A|------------------------------------------------------------------|
E|------------------------------------------------------------------|

[Chorus] (Gtr 1)             
e|----------------------------|
B|(16x)--(16x)--(16x)--(16x)--|
G|----------------------6-----|
D|--6-----5------3------6-----|
A|--6-----6------3------4-----|
E|--4-----3------1------------|

e|---------------------------------|
B|(16x)--(16x)--(16x)--(8x)--(8x)--|
G|----------------------6----8-----|
D|--6-----5------3------6----8-----|
A|--6-----6------3------4----6-----|
E|--4-----3------1-----------------|

[Bridge] (Gtr 2)  (2x)        (2:04)
e|------------8--------8---------9--------9-|
B|---------9--------9---------9--------9----|
G|----10--------10--------10-------10-------|
D|------------------------------------------|
A|------------------------------------------|
E|------------------------------------------|

        (Gtr 1)    (1x)     (2:10)
e|--------------------------------------------------------|
B|--------------------------------------------------------|
G|-10--------6--------------------------------------------|
D|-10--------6------figure out the strumming yourself-----|
A|-8---------4--------------------------------------------|
E|--------------------------------------------------------|
  
 (Gtr 2)                    (2:16)
e|-------------------------------------------------------------|
B|-------------------------------------------------------------|
G|-------5-----5-----8----6---5------5-----5-----6-----6----5--|
D|---6-6---6-6---6-6---6-6--6--6--6-6---6-6---6-6---6-6---6-6--|
A|-------------------------------------------------------------|
E|-------------------------------------------------------------|

e|-------------------------------------------------------------|
B|-------------------------------------------------------------|
G|-------5-----5-----8----6---5------8-----8-----8-----8----5--|
D|---6-6---6-6---6-6---6-6--6--6--6-6---6-6---6-6---6-6---6-6--|
A|-------------------------------------------------------------|
E|-------------------------------------------------------------|

[Chorus] (x2)            
e|----------------------------|
B|(16x)--(16x)--(16x)--(16x)--|
G|----------------------6-----|
D|--6-----5------3------6-----|
A|--6-----6------3------4-----|
E|--4-----3------1------------|

e|---------------------------------|
B|(16x)--(16x)--(16x)--(8x)--(8x)--|
G|----------------------6----8-----|
D|--6-----5------3------6----8-----|
A|--6-----6------3------4----6-----|
E|--4-----3------1-----------------|

[Bridge] (Gtr 2)  (2x)        (2:04)
e|------------8--------8---------9--------9-|
B|---------9--------9---------9--------9----|
G|----10--------10--------10-------10-------|
D|------------------------------------------|
A|------------------------------------------|
E|------------------------------------------|

        (Gtr 1)    (1x)     (2:10)
e|--------------------------------------------------------|
B|--------------------------------------------------------|
G|-10--------6--------------------------------------------|
D|-10--------6------figure out the strumming yourself-----|
A|-8---------4--------------------------------------------|
E|--------------------------------------------------------|
  
 (Gtr 2)                    (2:16)
e|-------------------------------------------------------------|
B|-------------------------------------------------------------|
G|-------5-----5-----8----6---5------5-----5-----6-----6----5--|
D|---6-6---6-6---6-6---6-6--6--6--6-6---6-6---6-6---6-6---6-6--|
A|-------------------------------------------------------------|
E|-------------------------------------------------------------|

e|-------------------------------------------------------------|
B|-------------------------------------------------------------|
G|-------5-----5-----8----6---5------8-----8-----8-----8----5--|
D|---6-6---6-6---6-6---6-6--6--6--6-6---6-6---6-6---6-6---6-6--|
A|-------------------------------------------------------------|
E|-------------------------------------------------------------|



************************************

| ( 
| figure out the strumming yourself 
| x) 

************************************

            
            
Suggest correction
Creating personal tab
Creating personal tab
You can edit any tab online and save it as your Personal.

You can edit, replace or remove any tab part or add personal notes – all changes will be seen only by you.

Personal tabs can be accessed anytime from any device, even offline.
Learn more »
comments
print report bad tab
11 comments total. Showing first comments.
0 reply
cracker182 41 Oct 31, 2006 02:35 AM

a very nice tab
good layout!

0 reply
bloodred16 801 Nov 01, 2006 03:53 AM

Agreed good tab. 4/5

0 reply
Oldmonkeys 591 Nov 02, 2006 08:04 PM

***** from me great song awesome tab

guest
You may want to rate the tab now too:
select rating
Wanna post a correction for this tab? Suggest correction