Oops, an error
Loading. Please wait.

Chapter Xiii bass

version 1
version 1

Whole song

Interactive

by +44
4,418 views 18 this week
1 commentread comment
1 2 3 4 5
1 last vote to show rating
add to favorites
×
Save as Personal and add changes to this tab that will be seen only by you. Learn more ›
×
You can save this tab as Personal to edit and correct it or add notes. All changes will be seen only by you. Learn more »
launch autoscroll
font size
0
reset
guitar tuner
edit
Autoscroll
slow
fast
+/-
esc
set tempo
stop
CHAPTER XIII                   (+44)
 

 

Gtr I (D A D G) 


  Q=156
 4/4
  Gtr I
  Q  Q  E E E E   E E E E E E E E   Q  Q  E E E E   E E E E E E E E
|---------------|-----------------|---------------|------------------|
|-0--0--0-0-0-0-|-0-0-0-0-0-0-0-0-|---------------|------------------|
|---------------|-----------------|-2--2--2-2-2-2-|-2-2-2-2-2-2-2-2--|
|---------------|-----------------|---------------|------------------|


  Q  Q  E E E E   E E E E E E E E   Q  Q  E E E E   E E E E E E E E
|---------------|-----------------|---------------|-----------------|
|-0--0--0-0-0-0-|-0-0-0-0-0-0-0-0-|---------------|-----------------|
|---------------|-----------------|-2--2--2-2-2-2-|-0-0-0-0-0-0-0-0-|
|---------------|-----------------|---------------|-----------------|


  Q  Q  E E E E   E E E E E E E E   Q  Q  E E E E   E E E E E E E E
|---------------|-----------------|---------------|-----------------|
|-0--0--0-0-0-0-|-0-0-0-0-0-0-0-0-|---------------|-----------------|
|---------------|-----------------|-2--2--2-2-2-2-|-2-2-2-2-2-2-2-2-|
|---------------|-----------------|---------------|-----------------|


  Q  Q  E E E E   E E E E E E E E   Q  Q  E E E E   E E E E E E E E
|---------------|-----------------|---------------|-----------------|
|-0--0--0-0-0-0-|-0-0-0-0-0-0-0-0-|---------------|-----------------|
|---------------|-----------------|-2--2--2-2-2-2-|-0-0-0-0-0-0-0-0-|
|---------------|-----------------|---------------|-----------------|


  E E E E E E E E   E E E E E E E E   E E E E E E E E   E E E E E E E E
|-----------------|-----------------|-----------------|-----------------|
|-0-0-0-0-0-0-0-0-|-0-0-0-0-0-0-0-0-|-----------------|-----------------|
|-----------------|-----------------|-2-2-2-2-2-2-2-2-|-2-2-2-2-2-2-2-2-|
|-----------------|-----------------|-----------------|-----------------|


  E E E E E E E E   E E E E E E E E   E E E E E E E E   E E E E E E E E
|-----------------|-----------------|-----------------|-----------------|
|-0-0-0-0-0-0-0-0-|-0-0-0-0-0-0-0-0-|-----------------|-----------------|
|-----------------|-----------------|-2-2-2-2-2-2-2-2-|-0-0-0-0-0-0-0-0-|
|-----------------|-----------------|-----------------|-----------------|


  E E E E E E E E   E E E E E E E E   E E E E E E E E   E E E E E E E E
|-----------------|-----------------|-----------------|-----------------|
|-0-0-0-0-0-0-0-0-|-0-0-0-0-0-0-0-0-|-----------------|-----------------|
|-----------------|-----------------|-2-2-2-2-2-2-2-2-|-2-2-2-2-2-2-2-2-|
|-----------------|-----------------|-----------------|-----------------|


  E E E E E E E E   E E E E E E E E   E E E E E E E E   E E E E E E E E
|-----------------|-----------------|-----------------|-----------------|
|-0-0-0-0-0-0-0-0-|-0-0-0-0-0-0-0-0-|-----------------|-----------------|
|-----------------|-----------------|-2-2-2-2-2-2-2-2-|-0-0-0-0-0-0-0-0-|
|-----------------|-----------------|-----------------|-----------------|


  E E E E E E E E   E E E E E E E E   E E E E E E E E   E E E E E E E E
|-----------------|-----------------|-----------------|-----------------|
|-----------------|-----------------|-----------------|-----------------|
|-----------------|-----------------|-----------------|-----------------|
|-5-5-5-5-5-5-5-5-|-5-5-5-5-5-5-5-5-|-5-5-5-5-5-5-5-5-|-4-4-4-4-2-2-2-2-|


  E E E E E E E E   E E E E E E E E   E E E E E E E E   E E E E E E E E
|-----------------|-----------------|-----------------|-----------------|
|-----------------|-----------------|-0-0-0-0-0-0-0-0-|-0-0-0-0-2-2-2-2-|
|-2-2-2-2-2-2-2-2-|-2-2-2-2-2-2-2-2-|-----------------|-----------------|
|-----------------|-----------------|-----------------|-----------------|


  E E E E E E E E   E E E E E E E E   E E E E E E E E   E E E E E E E E
|-----------------|-----------------|-----------------|-----------------|
|-----------------|-----------------|-----------------|-----------------|
|-----------------|-----------------|-----------------|-----------------|
|-5-5-5-5-5-5-5-5-|-5-5-5-5-5-5-5-5-|-5-5-5-5-5-5-5-5-|-4-4-4-4-2-2-2-2-|


  E E E E E E E E   E E E E E E E E   E E E E E E E E   W
|-----------------|-----------------|-----------------|------|
|-----------------|-----------------|-0-0-0-0-0-0-0-0-|------|
|-2-2-2-2-2-2-2-2-|-2-2-2-2-2-2-2-2-|-----------------|-0----|
|-----------------|-----------------|-----------------|------|


  Q  Q  E E E E   E E E E E E E E   Q  Q  E E E E   E E E E E E E E
|---------------|-----------------|---------------|-----------------|
|-0--0--0-0-0-0-|-0-0-0-0-0-0-0-0-|---------------|-----------------|
|---------------|-----------------|-2--2--2-2-2-2-|-2-2-2-2-2-2-2-2-|
|---------------|-----------------|---------------|-----------------|


  Q  Q  E E E E   E E E E E E E E   Q  Q  E E E E   E E E E E E E E
|---------------|-----------------|---------------|-----------------|
|-0--0--0-0-0-0-|-0-0-0-0-0-0-0-0-|---------------|-----------------|
|---------------|-----------------|-2--2--2-2-2-2-|-0-0-0-0-0-0-0-0-|
|---------------|-----------------|---------------|-----------------|


  E E E E E E E E   E E E E E E E E   E E E E E E E E   E E E E E E E E
|-----------------|-----------------|-----------------|-----------------|
|-0-0-0-0-0-0-0-0-|-0-0-0-0-0-0-0-0-|-----------------|-----------------|
|-----------------|-----------------|-2-2-2-2-2-2-2-2-|-2-2-2-2-2-2-2-2-|
|-----------------|-----------------|-----------------|-----------------|


  E E E E E E E E   E E E E E E E E   E E E E E E E E   E E E E E E E E
|-----------------|-----------------|-----------------|-----------------|
|-0-0-0-0-0-0-0-0-|-0-0-0-0-0-0-0-0-|-----------------|-----------------|
|-----------------|-----------------|-2-2-2-2-2-2-2-2-|-0-0-0-0-0-0-0-0-|
|-----------------|-----------------|-----------------|-----------------|


  E E E E E E E E   E E E E E E E E   E E E E E E E E   E E E E E E E E
|-----------------|-----------------|-----------------|-----------------|
|-0-0-0-0-0-0-0-0-|-0-0-0-0-0-0-0-0-|-----------------|-----------------|
|-----------------|-----------------|-2-2-2-2-2-2-2-2-|-2-2-2-2-2-2-2-2-|
|-----------------|-----------------|-----------------|-----------------|


  E E E E E E E E   E E E E E E E E   E E E E E E E E   E E E E E E E E
|-----------------|-----------------|-----------------|-----------------|
|-0-0-0-0-0-0-0-0-|-0-0-0-0-0-0-0-0-|-----------------|-----------------|
|-----------------|-----------------|-2-2-2-2-2-2-2-2-|-0-0-0-0-0-0-0-0-|
|-----------------|-----------------|-----------------|-----------------|


  E E E E E E E E   E E E E E E E E   E E E E E E E E   E E E E E E E E
|-----------------|-----------------|-----------------|-----------------|
|-----------------|-----------------|-----------------|-----------------|
|-----------------|-----------------|-----------------|-----------------|
|-5-5-5-5-5-5-5-5-|-5-5-5-5-5-5-5-5-|-5-5-5-5-5-5-5-5-|-4-4-4-4-2-2-2-2-|


  E E E E E E E E   E E E E E E E E   E E E E E E E E   E E E E E E E E
|-----------------|-----------------|-----------------|-----------------|
|-----------------|-----------------|-0-0-0-0-0-0-0-0-|-0-0-0-0-2-2-2-2-|
|-2-2-2-2-2-2-2-2-|-2-2-2-2-2-2-2-2-|-----------------|-----------------|
|-----------------|-----------------|-----------------|-----------------|


  E E E E E E E E   E E E E E E E E   E E E E E E E E   E E E E E E E E
|-----------------|-----------------|-----------------|-----------------|
|-----------------|-----------------|-----------------|-----------------|
|-----------------|-----------------|-----------------|-----------------|
|-5-5-5-5-5-5-5-5-|-5-5-5-5-5-5-5-5-|-5-5-5-5-5-5-5-5-|-4-4-4-4-2-2-2-2-|


  E E E E E E E E   E E E E E E E E   E E E E E E E E   W
|-----------------|-----------------|-----------------|------|
|-----------------|-----------------|-0-0-0-0-0-0-0-0-|------|
|-2-2-2-2-2-2-2-2-|-2-2-2-2-2-2-2-2-|-----------------|-0----|
|-----------------|-----------------|-----------------|------|


  Q=145
  H.      Q    H.      Q    H.      Q    H.      Q
|------------|------------|------------|------------|
|------------|------------|------------|------------|
|------------|------------|------------|------------|
|-4-------4--|-5-------5--|-0-------0--|-0-------0--|


  H.      Q    H.      Q    H.      Q    H.      Q
|------------|------------|------------|------------|
|------------|------------|------------|------------|
|------------|------------|------------|------------|
|-4-------4--|-5-------5--|-0-------0--|-0-------0--|


  H.      Q    H.      Q    H.      Q    H.      Q
|------------|------------|------------|------------|
|------------|------------|------------|------------|
|------------|------------|------------|------------|
|-4-------4--|-5-------5--|-0-------0--|-0-------0--|


  H.      Q    H.      Q    H.      Q    H.      Q
|------------|------------|------------|------------|
|------------|------------|------------|------------|
|------------|------------|------------|------------|
|-4-------4--|-5-------5--|-0-------0--|-0-------0--|


  H.      Q    H.      Q    H.      Q    H.      Q
|------------|------------|------------|------------|
|------------|------------|------------|------------|
|------------|------------|------------|------------|
|-4-------4--|-5-------5--|-0-------0--|-0-------0--|


  H.      Q    H.      Q    Q  E E E E E E   W
|------------|------------|----------------|------|
|------------|------------|----------------|------|
|------------|------------|----------------|------|
|-4-------4--|-5-------5--|-0--0-0-0-0-0-0-|-7----|


  Q  E E E E E E   +E  E E E E. S +S  E.
|----------------|-----------------------|
|----------------|-----------------------|
|-5--5-5-5-5-5-5-|-(5)-5-5-5-5--5-(5)-5--|
|----------------|-----------------------|


  Q  E E E E E E   +E  E E E E. S +S  E.
|----------------|-----------------------|
|----------------|-----------------------|
|-2--2-2-2-2-2-2-|-(2)-2-2-2-2--2-(2)-2--|
|----------------|-----------------------|


  Q  E E E E E E   +E  E E E E. S +S  E.
|----------------|-----------------------|
|-0--0-0-0-0-0-0-|-(0)-0-0-0-0--0-(0)-0--|
|----------------|-----------------------|
|----------------|-----------------------|


  Q  E E E E E E   +E  E E E E. S +S  E.
|----------------|-----------------------|
|----------------|-----------------------|
|-2--2-2-2-2-2-2-|-(2)-2-2-2-0--0-(0)-0--|
|----------------|-----------------------|


  Q  E E E E E E   +E  E E E E. S +S  E.
|----------------|-----------------------|
|-0--0-0-0-0-0-0-|-(0)-0-0-0-0--0-(0)-0--|
|----------------|-----------------------|
|----------------|-----------------------|


  Q  E E E E E E   +E  E E E E. S +S  E.
|----------------|-----------------------|
|----------------|-----------------------|
|-2--2-2-2-2-2-2-|-(2)-2-2-2-2--2-(2)-2--|
|----------------|-----------------------|


  Q  E E E E E E   +E  E E E E. S +S  E.
|----------------|-----------------------|
|-0--0-0-0-0-0-0-|-(0)-0-0-0-0--0-(0)-0--|
|----------------|-----------------------|
|----------------|-----------------------|


  Q  E E E E E E   +E  E E E E. S +S  E.
|----------------|-----------------------|
|----------------|-----------------------|
|-2--2-2-2-2-2-2-|-(2)-2-2-2-0--0-(0)-0--|
|----------------|-----------------------|


  E E E E E E E E   E E E E E E E E   E E E E E E E E   E E E E E E E E
|-----------------|-----------------|-----------------|-----------------|
|-----------------|-----------------|-----------------|-----------------|
|-----------------|-----------------|-----------------|-0-0-0-0-0-0-0-0-|
|-4-4-4-4-4-4-4-4-|-4-4-4-4-4-4-4-4-|-4-4-4-4-4-4-4-4-|-----------------|


  E E E E E E E E   E E E E E E E E   Q  E E E E E E   +E  E E E E E E E
|-----------------|-----------------|----------------|-------------------|
|-----------------|-----------------|----------------|-------------------|
|-----------------|-----------------|-2--2-2-2-2-2-0-|-(0)-0-0-0-0-0-0-0-|
|-0-0-0-0-0-0-0-0-|-0-0-0-0-0-0-0-0-|----------------|-------------------|


  E E E E E E E E   E E E E E E E E   Q  E E E E E E   +E  E E E E E E E
|-----------------|-----------------|----------------|-------------------|
|-----------------|-----------------|----------------|-------------------|
|-----------------|-----------------|-2--2-2-2-2-2-0-|-(0)-0-0-0-0-0-0-0-|
|-0-0-0-0-0-0-0-0-|-0-0-0-0-0-0-0-0-|----------------|-------------------|


  E E E E E E E E   E E E E E E E E   Q  E E E E E E   +E  E E E E E E E
|-----------------|-----------------|----------------|-------------------|
|-----------------|-----------------|----------------|-------------------|
|-----------------|-----------------|-2--2-2-2-2-2-0-|-(0)-0-0-0-0-0-0-0-|
|-0-0-0-0-0-0-0-0-|-0-0-0-0-0-0-0-0-|----------------|-------------------|


  E E E E E E E E   E E E E E E E E   Q  E E E E E E   +E  E E E E E E E
|-----------------|-----------------|----------------|-------------------|
|-----------------|-----------------|----------------|-------------------|
|-----------------|-----------------|-2--2-2-2-2-2-0-|-(0)-0-0-0-0-0-0-0-|
|-0-0-0-0-0-0-0-0-|-0-0-0-0-0-0-0-0-|----------------|-------------------|


  E E E E E E E E   E E E E E E E E   Q  E E E E E E   +E  E E E E E E E
|-----------------|-----------------|----------------|-------------------|
|-----------------|-----------------|----------------|-------------------|
|-----------------|-----------------|-2--2-2-2-2-2-0-|-(0)-0-0-0-0-0-0-0-|
|-0-0-0-0-0-0-0-0-|-0-0-0-0-0-0-0-0-|----------------|-------------------|


  E E E E E E E E   E E E E E E E E   Q  E E E E E E   +E  E E E E E E E
|-----------------|-----------------|----------------|-------------------|
|-----------------|-----------------|----------------|-------------------|
|-----------------|-----------------|-2--2-2-2-2-2-0-|-(0)-0-0-0-0-0-0-0-|
|-0-0-0-0-0-0-0-0-|-0-0-0-0-0-0-0-0-|----------------|-------------------|


  E E E E E E E E   E E E E E E E E   Q  E E E E E E   +E  E E E E E E E
|-----------------|-----------------|----------------|-------------------|
|-----------------|-----------------|----------------|-------------------|
|-----------------|-----------------|-2--2-2-2-2-2-0-|-(0)-0-0-0-0-0-0-0-|
|-0-0-0-0-0-0-0-0-|-0-0-0-0-0-0-0-0-|----------------|-------------------|


  E E E E E E E E   E E E E E E E E   Q  E E E E E E   +E  E E E E E E E
|-----------------|-----------------|----------------|-------------------|
|-----------------|-----------------|----------------|-------------------|
|-----------------|-----------------|-2--2-2-2-2-2-0-|-(0)-0-0-0-0-0-0-0-|
|-0-0-0-0-0-0-0-0-|-0-0-0-0-0-0-0-0-|----------------|-------------------|


  W          +W
|----------|--------*|
|----------|--------*|
|----------|--------*|
|-5--------|-(5)----*|



            
            
Suggest correction
Creating personal tab
Creating personal tab
You can edit any tab online and save it as your Personal.

You can edit, replace or remove any tab part or add personal notes – all changes will be seen only by you.

Personal tabs can be accessed anytime from any device, even offline.
Learn more »
Give kudos to tab author, rate the tab!
1 2 3 4 5
comments
print report bad tab
1 comment total.
-2 reply
guitar_gringo_ 10 Oct 03, 2007 02:54 PM

check out guitar_gringo 's profile.....They say he's made the craziest tab ever.....ever....plus he rocks his face off

guest
You may want to rate the tab now too:
select rating
Wanna post a correction for this tab? Suggest correction