Oops, an error
Loading. Please wait.

Cliff Diving tab

version 4
version 4
by +44
375 views 1 this week
no commentswrite comment
1 2 3 4 5
1 last vote to show rating
add to favorites
×
Save as Personal and add changes to this tab that will be seen only by you. Learn more ›
×
You can save this tab as Personal to edit and correct it or add notes. All changes will be seen only by you. Learn more »
launch autoscroll
font size
0
reset
how to read this tab
guitar tuner
edit
Autoscroll
slow
fast
+/-
esc
set tempo
stop
Author
Difficulty
I just picked up a guitar about a month ago, so this tab may not be 100% correct, but i
it's correct to at least 90%. And i did this all on Acoustic, so it sounds a hell of
different.
Have fun.

Band - Plus44
Song - Cliff Diving
Album - When Your Heart Stops Beating
Tuning - Standard (EADGBe)

INTRO
[Guitar 1]
e-------------------------------------------------------|
B-------------------------------------------------------|
G-------4-----------5-----------------------------------|
D-5-----4-8x--2-----5-8x--------------------------------|
A-5-8x--2-----2-8x--3-----------------------------------|
E-3-----------0-----------------------------------------|

[Guitar 2(Distortion)]
e-------------------------------------------------------|
B--8-x16--7x8-5x8-333-5x8--33-55-1x8--------------------| play 2x.
G-------------------------------------------------------|
D-------------------------------------------------------|
A-------------------------------------------------------|
E-------------------------------------------------------|

VERSE 1  ("Hey Silly Girl...")
e-------------------------------------------------------|
B-------------------------------------------------------|
G-------------------------------------------------------|
D-------4-----------------------------------------------|
A-5-8x--2-8x--2-8x--10-8x-------------------------------|
E-3-----------0------8----------------------------------|

Chorus [play real choppy]
e-------------------------------------------------------|
B-------------------------------------------------------|
G-5-----------------------------------------------------|
D-5-1x--5-----2---------------{7}-----------------------|
A-3-----5-2x--2-2~x----end on-{7}x4---------------------|
E-------3-----0---------------{5}-----------------------|

[play intro again]

VERSE 2 ("Dear You...")
e-------------------------------------------------------|
B-------------------------------------------------------|
G-------------------------------------------------------|
D-------4-----------------------------------------------|
A-5-8x--2-8x--2-8x--10-8x-------------------------------|
E-3-----------0------8----------------------------------|

CHORUS [play real choppy]
e-------------------------------------------------------|
B-------------------------------------------------------|
G-5-----------------------------------------------------|
D-5-1x--5-----2---------------{7}-----------------------|
A-3-----5-2x--2-2~x----end on-{7}x4---------------------|
E-------3-----0---------------{5}-----------------------|

e-{---------------------}---------------------------------|
B-{---------------------}---------------------------------|
G-{5555-----------------}PLAY x2--------------------------|
D-{5555-5555---22222222-}--------------{7}----------------|
A-{3333-5555---22222222-}-------end on-{7}x4--------------|
E-{-----3333---00000000-}--------------{5}----------------|


BREAK (I Guessed Here, Not 100% sure yet)
[Guitar1]
e-------------------------------------------------------|
B--10-x3--12-6x--7-3x--8x8------------------------------|
G-------------------------------------------------------| Play Acouple Times
D-------------------------------------------------------|
A-------------------------------------------------------|
E-------------------------------------------------------|

[Guitar2]
e-------------------------------------------------------|
B--10-----10------8-----8-------------------------------|
G------7------7-----7----7------------------------------| Play Acouple Times
D-------------------------------------------------------|
A-------------------------------------------------------|
E-------------------------------------------------------|

LAST CHORUS
e-------------------------------------------------------|
B-------------------------------------------------------|
G-5-----------------------------------------------------|
D-5-1x--5-----2---------------{7}-----------------------|
A-3-----5-2x--2-2~x----end on-{7}x4---------------------|
E-------3-----0---------------{5}-----------------------|

e-{---------------------}---------------------------------|
B-{---------------------}---------------------------------|
G-{5555-----------------}PLAY x2--------------------------|
D-{5555-5555---22222222-}--------------{7}----------------|
A-{3333-5555---22222222-}-------end on-{7}x8--------------|
E-{-----3333---00000000-}--------------{5}----------------|

After that play this:

[Guitar1]
e-------------------------------------------------------|
B--10-x3--12-6x--7-3x--8x8------------------------------|
G-------------------------------------------------------| Play Acouple Times
D-------------------------------------------------------|
A-------------------------------------------------------|
E-------------------------------------------------------|

[Guitar2]
e-------------------------------------------------------|
B--10-----10------8-----8-------------------------------|
G------7------7-----7----7------------------------------| Play Acouple Times
D-------------------------------------------------------|
A-------------------------------------------------------|


In my opinon, they're best song on they're album...besides Chapter 13 of course.
Fun and easy to play. Play it acouple times, and you'll eventually get it.
Any questions, please email me

Kyle
illbedeadbeforetonight@hotmail.com

            
            
Suggest correction
Creating personal tab
Creating personal tab
You can edit any tab online and save it as your Personal.

You can edit, replace or remove any tab part or add personal notes – all changes will be seen only by you.

Personal tabs can be accessed anytime from any device, even offline.
Learn more »
Give kudos to tab author, rate the tab!
1 2 3 4 5
comments
print report bad tab
guest
You may want to rate the tab now too:
select rating
Wanna post a correction for this tab? Suggest correction