Oops, an error
Loading. Please wait.

Guten Tag tab

version 1
version 1

Whole song

by +44
2,984 views 3 this week
2 commentsread comments
1 2 3 4 5
1 last vote to show rating
add to favorites
×
Save as Personal and add changes to this tab that will be seen only by you. Learn more ›
×
You can save this tab as Personal to edit and correct it or add notes. All changes will be seen only by you. Learn more »
launch autoscroll
font size
0
reset
how to read this tab
guitar tuner
edit
Autoscroll
slow
fast
+/-
esc
set tempo
stop
Difficulty
intermediate
------------------------------//------------------------------
"On May 22, 2007 the song "Guten Tag" was released on iTunes. 
It is an English cover of a song originally by the German band 
Wir Sind Helden which has covered the song 
When Your Heart Stops Beating by +44." (Wikipedia)
------------------------------//------------------------------

All guitars in standard tuning

(00:00 - 00:05)
------------------------INTRO------------------------------
Guitar I
|-----------------------------|-------------------------|
|-----------------------------|-------------------------|
|-----------------------------|-------------------------|
|-10-------------------7-9-10-|-------------------9-10--|
|----------7----7-8-10--------|-------7----7-8-10-------|
|----8--10---8----------------|-8--10---8---------------|

(00:05 - 00:10)

Guitar I - Main Riff
|--------------------------|-------------------------|
|--------------------------|-------------------------|
|--------------------------|-------------------------|
|-------------------7-9-10-|-------------------9-10--|
|-------7----7-8-10--------|-------7----7-8-10-------|
|-8--10---8----------------|-8--10---8---------------|

Guitar II
|---------------------------|
|---------------------------|
|-x-x-x-x-x-x-x-x-x-x-x-x-x-|
|---------------------------|
|-x-x-x-x-x-x-x-x-x-x-x-x-x-|
|---------------------------|

(00:10 - 00:30)
------------------------CHORUS------------------------------

Guitar I continues with main riff

Guitar II
|--------------------------------------------------|
|--------------------------------------------------|
|--12-12-12-12-12-12-12-12-12-12-12-12-12-12-12-12-|
|--------------------------------------------------|
|--10-10-10-10-10-10-10-10-10-10-10-10-10-10-10-10-|
|--------------------------------------------------|

|--------------------------------------------------|
|--------------------------------------------------|
|-12-12-12-12-12-12-12-12/14-14\12-12/14-14-14-14--|
|--------------------------------------------------|
|-10-10-10-10-10-10-10-10/12-12\10-10/12-12-12-12--|
|--------------------------------------------------|

|-------------------------------------------------|
|-------------------------------------------------|
|-10-10-10-10-10-10-10-10-10-10-10-10-10-10-10-10-|
|-------------------------------------------------|
|--8--8--8--8--8--8--8--8--8--8--8--8--8--8--8--8-|
|-------------------------------------------------|

|---------------------------------------------|
|---------------------------------------------|
|-10-10-10-10-10-10\9-9/10-10\9--9\7-7-7-7----|
|---------------------------------------------|
|--8--8--8--8--8--8\7-7/=8--8\7--7\5-5-5-5----|
|---------------------------------------------|

Guitar III
|--------------------------------------------------|
|--------------------------------------------------|
|---5--5--5--5--5--5--5--5--5--5--5--5--5--5--5--5-|
|---5--5--5--5--5--5--5--5--5--5--5--5--5--5--5--5-|
|---3--3--3--3--3--3--3--3--3--3--3--3--3--3--3--3-|
|--------------------------------------------------|

|--------------------------------------------------|
|--------------------------------------------------|
|--5--5--5--5--5--5--5--5--5--5--5--5--5--5--5--5--|
|--5--5--5--5--5--5--5--5--5--5--5--5--5--5--5--5--|
|--3--3--3--3--3--3--3--3--3--3--3--3--3--3--3--3--|
|--------------------------------------------------|

|--------------------------------------------------|
|--------------------------------------------------|
|--------------------------------------------------|
|--3--3--3--3--3--3--3--3--3--3--3--3--3--3--3--3--|
|--3--3--3--3--3--3--3--3--3--3--3--3--3--3--3--3--|
|--1--1--1--1--1--1--1--1--1--1--1--1--1--1--1--1--|

|
|--------------------------------------------------|
|--------------------------------------------------|
|--------------------------------------------------|
|--3--3--3--3--3--3--3--3--3--3--3--3--3--3--3--3--|
|--3--3--3--3--3--3--3--3--3--3--3--3--3--3--3--3--|
|--1--1--1--1--1--1--1--1--1--1--1--1--1--1--1--1--|


(00:31 - 00:51)
------------------------VERSE------------------------------

Guitar I continues with main riff

Guitar II 

|--------------------------------------------------|
|--------------------------------------------------|
|---5--5--5--5--5--5--5--5--5--5--5--5--5--5--5--5-|
|---5--5--5--5--5--5--5--5--5--5--5--5--5--5--5--5-|
|---3--3--3--3--3--3--3--3--3--3--3--3--3--3--3--3-|
|--------------------------------------------------|

|--------------------------------------------------|
|--------------------------------------------------|
|--5--5--5--5--5--5--5--5--5--5--5--5--5--5--5--5--|
|--5--5--5--5--5--5--5--5--5--5--5--5--5--5--5--5--|
|--3--3--3--3--3--3--3--3--3--3--3--3--3--3--3--3--|
|--------------------------------------------------|

|--------------------------------------------------|
|--------------------------------------------------|
|--------------------------------------------------|
|--3--3--3--3--3--3--3--3--3--3--3--3--3--3--3--3--|
|--3--3--3--3--3--3--3--3--3--3--3--3--3--3--3--3--|
|--1--1--1--1--1--1--1--1--1--1--1--1--1--1--1--1--|

|
|--------------------------------------------------|
|--------------------------------------------------|
|--------------------------------------------------|
|--3--3--3--3--3--3--3--3--3--3--3--3--3--3--3--3--|
|--3--3--3--3--3--3--3--3--3--3--3--3--3--3--3--3--|
|--1--1--1--1--1--1--1--1--1--1--1--1--1--1--1--1--|

(00:52 - 01:23)

Repeat CHORUS


(01:13 - 01:23)

Guitar I plays the main riff

Guitar II
|-----|
|-----|
|--5--|>>>>>>>>>>>
                

            
            
Suggest correction
Creating personal tab
Creating personal tab
You can edit any tab online and save it as your Personal.

You can edit, replace or remove any tab part or add personal notes – all changes will be seen only by you.

Personal tabs can be accessed anytime from any device, even offline.
Learn more »
Give kudos to tab author, rate the tab!
1 2 3 4 5
comments
print report bad tab
2 comments total.
0 reply
Guit_r_ist 62 Jun 27, 2007 12:00 PM

Ok, just to let you know that I made this tab, it was my first one... but I forgot a very important thing, to name it!!!

0 reply
hilton27 354 Jul 09, 2007 12:57 PM

Can someone make a bass tab for this song?

guest
Wanna post a correction for this tab? Suggest correction