Oops, an error
Loading. Please wait.

Little Death tab

version 1
version 1

Whole song

Interactive

by +44
2,472 views 1 this week
3 commentsread comments
1 2 3 4 5
x 5
add to favorites
×
Save as Personal and add changes to this tab that will be seen only by you. Learn more ›
×
You can save this tab as Personal to edit and correct it or add notes. All changes will be seen only by you. Learn more »
launch autoscroll
font size
0
reset
how to read this tab
guitar tuner
edit
Autoscroll
slow
fast
+/-
esc
set tempo
stop
Difficulty
intermediate
(+44) - Little Death
Tabbed by Patheticloser96
Tuning: Standard

verse
E|-------------------------------------||
B|-----0--------0----------------------||
G|-------0~-------0~-------0~-------0~-||
D|-222------222---------00-------00----|| x2
A|-------------------33-------33-------||
E|-------------------------------------||

verse variation (timing & picking slightly different)
E|------------------------------------------------||
B|-----0-----0-----0-----0------------------------||
G|-------000---------000---------0000-------0000--||
D|-222---------222------------00---------00-------|| x2
A|-------------------------33---------33----------||
E|------------------------------------------------||

verse variation x4

chorus
E|------------------------------------||
B|------------------------------------||
G|------------------------------------||
D|-5555555555555555-2222222222222222--|| x4
A|-5555555555555555-2222222222222222--||
E|-3333333333333333-0000000000000000--||

verse variation x2
chorus

bridge (x2)
E|---------------------------------------------||
B|---------------------------------------------||
G|-7777777777-555-44-222-444-------------------||
D|-xxxxxxxxxx-xxx-xx-xxx-xxx-555-777-555-4444--||
A|-5555555555-333-22-000-222-xxx-xxx-xxx-xxxx--||
E|---------------------------333-555-333-2222--||

E|--------------------------------------||
B|--------------------------------------||
G|-7777777777-555-44-999999999999-4444--||
D|-xxxxxxxxxx-xxx-xx-xxxxxxxxxxxx-xxxx--||
A|-5555555555-333-22-777777777777-2222--||
E|--------------------------------------||

break (guitar 1)
E|-----7-----7-----7~--------||
B|---8-----8-----8-8~-7h8p7--||
G|-9-----9-----9-------------||
D|---------------------------|| x4
A|---------------------------||
E|---------------------------||

break (guitar 2)
E|-0~--------||
B|-0~--------||
G|-0~---5~---||
D|-2~---5~---|| x4
A|-2~---3~---||
E|-0~--------||

chorus

            
            
Suggest correction
Creating personal tab
Creating personal tab
You can edit any tab online and save it as your Personal.

You can edit, replace or remove any tab part or add personal notes – all changes will be seen only by you.

Personal tabs can be accessed anytime from any device, even offline.
Learn more »
comments
print report bad tab
3 comments total.
0 reply
ed182 895 Nov 22, 2006 09:01 AM

awesome

0 reply
FozzyMcQueen 10 Nov 22, 2006 04:46 PM

missing second guitar parts, otherwise good

0 reply
Blnkone82rulz 240 Jan 23, 2007 01:28 PM

pretty good for what is there but still parts are missing and some parts are just a little off maybe you guys should check put my tab ver. 4 it has both guitar parts

guest
Wanna post a correction for this tab? Suggest correction