Oops, an error
Loading. Please wait.

Make You Smile tab

version 3
version 3

Whole song

Interactive

by +44
5,343 views 3 this week
7 commentsread comments
1 2 3 4 5
x 11
add to favorites
×
Save as Personal and add changes to this tab that will be seen only by you. Learn more ›
×
You can save this tab as Personal to edit and correct it or add notes. All changes will be seen only by you. Learn more »
launch autoscroll
font size
0
reset
how to read this tab
guitar tuner
edit
Autoscroll
slow
fast
+/-
esc
set tempo
stop
Author
Difficulty
This is my first tab so give me a break if it's incorrect on some parts.
                                p=pull off
Intro(piano)                    h=hammer on
                                ~=hold
e|--------------------------|
B|-----7-------7-------5----|
G|---7---7---7---7-------7~-|(do this twice but on the second time, end it 
D|-------------------0------|slower)
A|-5-------4-------0--------|
E|--------------------------|

Verse

e|-------------------------|
B|-------------------------|
G|-2~---4~-----------------|x4
D|-0~---4~---5~------------|
A|-0~---2~---5~------------|
E|-----------3~------------|

Interlude

e|------5-------------5-------------5--------0-h2--0----|
B|---------3-------------3-------------3--------------3-|
G|-7~------------4~-------------------------------------|x2(only do the
D|-7~------------4~------------5~-----------------------|hammer-on on the
A|-5~------------2~------------5~-----------------------|second time around)
E|-----------------------------3~-----------------------|

e|----------------------------|
B|------7-------7-------5-----|
G|-7--7---7---7---7--------7~-|
D|-7------------------0-------|
A|-5-------4--------0---------|
E|----------------------------|

Verse

e|---------------------------|
B|-----7-------7------5------|
G|-7--7---7---7---7-------7~-|
D|-7-----------------0-------|
A|-5-------4--------0--------|
E|---------------------------|

e|-----------------------------|
B|-----7-------7------5------3-|
G|-7--7---7---7---7-------7~---|
D|-7-----------------0---------|
A|-5-------4--------0----------|
E|-----------------------------|

e|----5-------5--------------|
B|---3--3----3--3-----5------|
G|-7----------------------7~-|
D|-7-----------------0-------|
A|-5-------4--------0--------|
E|---------------------------|

e|---------------------------|
B|-----7-------7------5------|
G|-7--7---7---7---7-------7~-|
D|-7-----------------0-------|
A|-5-------4--------0--------|
E|---------------------------|

Chorus

e|--------------------------|
B|--------------------------|
G|-7~-4~----7~-4~-----------|x2(If you want you could have another guitar 
D|-7~-4~-5~-7~-4~-2h4-5~-55-|playing the first part of the interlude along 
A|-5~-2~-5~-5~-2~-----5~-55-|with this)
E|-------3~-----------3~-33-|

Bridge(let ring)

e|-2------2-3----2-----2-3--------2-|
B|-----3------3------3-----3----3---|
G|---2-------------2----------2-----|
D|----------------------------------|
A|----------------------------------|
E|----------------------------------|

Verse

e|-------------------------|
B|-------------------------|
G|-2~---4~-----------------|
D|-0~---4~---5~------------|
A|-0~---2~---5~------------|
E|-----------3~------------|

e|------------------2-----|
B|---------------0-----3~-|
G|-2~---4~----------------|
D|-2~---4~---5~-----------|
A|-0~---2~---5~-----------|
E|-----------3~-----------|

e|------5-------------5---------------2----|
B|-----3----3--------3-----3-------0-----3-|
G|-2-------------4-------------------------|x2 
D|-0-------------4-------------5-----------|
A|-0-------------2-------------5-----------| 
E|-----------------------------3-----------|

Chorus
(let ring)
e|----5-------5-------5-------5-------5-------5-------5-------5--2-|
B|-3-----2-3-----3-0-----0-0-----0-3-----2-3-----3-0-----0-0-------|
G|-----------------------------------------------------------------|
D|-----------------------------------------------------------------|
A|-----------------------------------------------------------------|
E|-----------------------------------------------------------------|

e|---------------------------------------|
B|---------------------------------------|X6
G|-22222222---44444444-------------------|
D|-00000000---44444444-55555555-55555555-|
A|-00000000---22222222-55555555-55555555-|
E|---------------------33333333-33333333-|

Outro

(let ring)
e|----5-------5-------5-------5-------5-------5-------5-------5--2-|
B|-3-----2-3-----3-0-----0-0-----0-3-----2-3-----3-0-----0-0-------|
G|-----------------------------------------------------------------|x3
D|-----------------------------------------------------------------|
A|-----------------------------------------------------------------|
E|-----------------------------------------------------------------|


Damn that was hard! It's gonna be real difficult tabbing out +44 since they have mostly techno effects!

            
            
Suggest correction
Creating personal tab
Creating personal tab
You can edit any tab online and save it as your Personal.

You can edit, replace or remove any tab part or add personal notes – all changes will be seen only by you.

Personal tabs can be accessed anytime from any device, even offline.
Learn more »
comments
print report bad tab
7 comments total. Showing first comments.
0 reply
Lt hilsdorf 51 Dec 04, 2006 01:32 PM

Sounds good to me, although I'm guessing that the 7's in this part of the first chrous are suppose to be 4's maybe? Other than that nice dude

e|----
B|----
G|-7~-
D|-7~-
A|-2~-
E|----

0 reply
Blnkone82rulz 240 Dec 04, 2006 02:43 PM

good job nice tab excpt for that one mistake Lt hilsdorf mentioned

0 reply
MoPe 62 Dec 06, 2006 02:14 PM

Ok I went back and fixed it. Thanks for the comment I would problably never have noticed that!

guest
You may want to rate the tab now too:
select rating
Wanna post a correction for this tab? Suggest correction