Oops, an error
Loading. Please wait.

Weatherman bass

version 1
version 1

Whole song

Interactive

by +44
2,220 views 1 this week
5 commentsread comments
1 2 3 4 5
x 5
add to favorites
×
Save as Personal and add changes to this tab that will be seen only by you. Learn more ›
×
You can save this tab as Personal to edit and correct it or add notes. All changes will be seen only by you. Learn more »
launch autoscroll
font size
0
reset
guitar tuner
edit
Autoscroll
slow
fast
+/-
esc
set tempo
stop
Author
This is a pretty easy song, just play with the song for timing.

Let me know if you find any errors or corrections and email me them at sonicspeed04@hotmail.com


Intro/Verse  * = hold note

----------------------------------------|
----------------------------------------|
----------------------------------------|
-5~~~~--1~~~~----5~~~~--8-1~~~~---------|


Chorus

----------------------------------------|
----------------------------------------|
----------------------------------------|
-555555555--8--000000000----------------|

----------------------------------------|
----------------------------------------|
-------------3--333333333----------------|
-555555555-----------------------------|


Thats about it... Just listen to the cd to tell when the chorus or verse is comming, its 
easy.

Like I said before, if you find any errors or corrections, please email me at:

sonicspeed04@hotmail.com

If you have any plus 44 bass tab requests, let me know.

            
            
Suggest correction
Creating personal tab
Creating personal tab
You can edit any tab online and save it as your Personal.

You can edit, replace or remove any tab part or add personal notes – all changes will be seen only by you.

Personal tabs can be accessed anytime from any device, even offline.
Learn more »
comments
print report bad tab
5 comments total. Showing first comments.
0 reply
Harry.B182! 51 Nov 23, 2006 07:30 AM

nice 1 again for tabbin sum +44 songs and keep it up

0 reply
FamousStars_ 31 Nov 29, 2006 01:49 PM

shouldnt it be
----------------------
----------------------
----------------------
5~--------8/1~--------

----------------------------------------------
----------------------------------------------
----------------------------------------------
55555555--1111111--5555555-888888888-111111111
something like that

0 reply
nicklopeke 31 Dec 09, 2006 04:22 PM

I agree FamousStars_, I was just about to comment about that myself.

guest
You may want to rate the tab now too:
select rating
Wanna post a correction for this tab? Suggest correction