Oops, an error
Loading. Please wait.
We have an official When Your Heart Stops Beating tab made by UG professional guitarists. Check out the tab »
×
by +44
47,456 views 9 this week
1 commentread comment
1 2 3 4 5
x 5
add to favorites
×
Save as Personal and add changes to this tab that will be seen only by you. Learn more ›
×
You can save this tab as Personal to edit and correct it or add notes. All changes will be seen only by you. Learn more »
launch autoscroll
font size
0
reset
how to read this tab
guitar tuner
edit
Autoscroll
slow
fast
+/-
esc
set tempo
stop
Author
Artist:(+44)
Song:When Your Heart Stops Beating
Album:When Your Heart Stops Beating
Tabbed By: Aaron

*=short rest
h=hammer on
p=pull off

INTRO x2 (listen to song for timing, the whole way through)
guitar 1                           End on this 2nd time, instead of 8&7
e|-------------------------------| e|-12-----|
b|-10------------------------8---| b|-----13-|
g|-----9-------9--------9-------7| g|--------|
d|----------7-------10-----------| d|--------|
a|-------------------------------| a|--------|
e|-------------------------------| e|--------|
guitar 2
e|-----------------|
b|-----------------|
g|-2-----5---------|
d|-2-----5----5----|
a|-0x16--3x8--5----|
e|------------3x8--|

VERSE x4
guitar 1
e|------------------------------|
b|------------------------------|
g|------------12-*-12-*-12-*-12-|
d|-2-----5----12-*-12-*-12-*-12-|
a|-0x16--3x8--10-*-10-*-10-*-10-|
e|------------------------------|
guitar 2
e|-----------------|
b|-----------------|
g|-----------------|
d|-2-----5---------|
a|-0x16--3x8--5----|
e|------------3x8--|

CHOURS x4
guitar 1
e|--------------------------------------------------------------|
b|--------------------------------------------------------------|
g|-9--5---7--5-----9--5----7--5----9--5----7--5----9--5----7--5-|
d|--------------------------------------------------------------|
a|-7--3---5--3-----7--3----5--3----7--3----5--3----7--3----5--3-|
e|--------------------------------------------------------------|
on fourth time play this
e|----------------------------------------------------|
b|-8--5----6--5----8--5-------------------------------|
g|-9--5----7--5----9--5----10--10--9--9--10--10--9--9-|
d|----------------------------------------------------|
a|-7--3----5--3----7--3-----8---8--7--7---8---8--7--7-|
e|----------------------------------------------------|
guitar 2
e|---------------------|
b|---------------------|
g|------5---------2----|
d|-3----5----2----2----|
a|-3----3x8--2----0x8--|
e|-1x8-------0x8-------|
on fourth time play this
e|-----------------|
b|-----------------|
g|------5----------|
d|-3----5----2-----|
a|-3----3x8--2-----|
e|-1x8-------0x16--|


Repeat intro, but once instead twice

Repeat verse quietly and only twice instead of 4 times

Reapeat Chours, but instead on the fourth time play this
e|--------------------------------|
b|--------------------------------|
g|------5-------------------------|
d|-3----5----2-2-2-2-2-2-2-2--2-*-|
a|-3----3x8--2-2-2-2-2-2-2-2--2-*-|
e|-1x8-------0-0-0-0-0-0-0-0--0-*-|
listen to the song and you'll know what i mean

BRIDGE(i think),x2
guitar 1
e|------------------------|
b|------------------------|
g|-5-------5-------5----4-|
d|----2-------2-------2---|
a|------------------------|
e|------------------------|
guitar 2 (p.m)
e|--------------------------------------------|
b|--------------------------------------------|
g|--------------------------------------------|
d|-2-2-*--2-2-2-*--5-5-5-*--5---------------2-|(start over from there)
a|-0-0-*--0-0-0-*--3-3-3-*--3-5-5-5-5-5-5-5-0-|
e|----------------------------3-3-3-3-3-3-3---|

BRIDGE(again? i think)
both guitars
e|--------------------------------------------------------------|
b|--------------------------------------------------------------|
g|-2-2-2-2-*--2-2-2-2-*--5-5-5-5-*--------------------2-2-2-2-*-|
d|-2-2-2-2-*--2-2-2-2-*--5-5-5-5-*--5-5-5-5-5-5-5-5-5-2-2-2-2-*-|
a|-0-0-0-0-*--0-0-0-0-*--3-3-3-3-*--5-5-5-5-5-5-5-5-5-0-0-0-0-*-|
e|----------------------------------3-3-3-3-3-3-3-3-3-----------|

INTERLUDE(i guess), x3
guitar 1
e|---------------------------------------|
b|---------------------------------------|
g|-----------------------9----9-9--------|
d|-10-p9-h10----10-10-p9----------h10-p6-|
a|---------------------------------------|
e|---------------------------------------|
guitar 2
e|-----------------|
b|-----------------|
g|-2-----5---------|
d|-2-----5----5----|
a|-0x16--3x8--5----|
e|------------3x8--|

Repeat Chours x 6
and end on
e|-----|
b|-----|
g|-2~~-|
d|-2~~-|
a|-0~~-|
e|-----|

The End.

            
            
Suggest correction
Creating personal tab
Creating personal tab
You can edit any tab online and save it as your Personal.

You can edit, replace or remove any tab part or add personal notes – all changes will be seen only by you.

Personal tabs can be accessed anytime from any device, even offline.
Learn more »
comments
print report bad tab
1 comment total.
0 reply
TBSrules26 50 Nov 07, 2006 12:27 PM

i like dis one better than the other one

guest
You may want to rate the tab now too:
select rating
Wanna post a correction for this tab? Suggest correction