Oops, an error
Loading. Please wait.

Tu Tienes Lo Que Quiero tab

version 1
version 1
by Maná
3,355 views 6 this week
1 commentread comment
1 2 3 4 5
2 more votes to show rating
add to favorites
×
Save as Personal and add changes to this tab that will be seen only by you. Learn more ›
×
You can save this tab as Personal to edit and correct it or add notes. All changes will be seen only by you. Learn more »
launch autoscroll
font size
0
reset
how to read this tab
guitar tuner
edit
Autoscroll
slow
fast
+/-
esc
set tempo
stop
Author
Difficulty
Allright i think this is rite.

|-------------------------------------------------------------------|
|-------------------------------------------------------------------|
|-------------------------------------------------------------------|
|-----9--10---------------------------------10--10--9--9--7---------|
|--7---------------10--12------12-----------------------------------|
|------------8--8----------10-------10------------------------------|

|-------------------------------------------------------------------|
|-------------------------------------------------------------------|
|-------------------------------------------------------------------|
|-----9--10----------------------------------------9--10--9---------|
|--7---------------10--12------12-----------------------------------|
|------------8--8----------10-------10-----7--7---------------------|

          Em             C        D
ay! mujer que buena tu te vez
   D                        Em     C    D
tu forma me alucina
        Em     C                   D                                Em   C  D
y yo se que sabes como estas lo enseñas sin medida, niña
 Em        C         D     Em    C               D
a ti te gusta vacilar, lo que tu quieres es gozar
         Em          C     D                              Em C      D
y la noche te invita a rumbear mojada de calor de calor

(prechorus)
 C                   Em            D   C
con pinta de una diva
C                            Em       D  C
gozando asta que salga el sol
                        Em    D
como quiero tenerte
           C                   D
me haz robado el corazón

Em   C                   D
tu tienes lo que quiero

Em      C                     D
me prendes como el fuego
 Em    C                  D
 tu tienes lo que quiero
 Em      C                      D
me prendes como el fuego

Em                         C             D
ven pa'ca y muévemelo aquí
                          Em         C        D
mamita estas ardiendo
   Em             C                D
recorrer tu cuerpo y explorar
                     Em        C          D
basarte sin aliento, corazón

(prechorus)
(chorus)

solo (Em-C-D)

     C                       D                                 Em
quiero probar tu amor quiero comerte a besos
C                 D                          Em
tu eres para mi un sueño tan perfecto
C                   D                                     Em
contigo pachanguear rumbeando sin parar
                     Em   D       C
te quiero para mi  ho... yeah!
Em           C                  Em
gozando hasta el amanecer

(chorus)

 Em               C
acerca te un poco para aca
  D                                     Em-C-D
 dame tu amor damelo ya
Em                C
acercate un poco pra aca
D                                        Em-C-D
Dame tu amor damelo ya

            
            
Suggest correction
Creating personal tab
Creating personal tab
You can edit any tab online and save it as your Personal.

You can edit, replace or remove any tab part or add personal notes – all changes will be seen only by you.

Personal tabs can be accessed anytime from any device, even offline.
Learn more »
Give kudos to tab author, rate the tab!
1 2 3 4 5
comments
print report bad tab
1 comment total.
0 reply
jotadelopez 10 Oct 04, 2013 09:44 AM

The last three notes on the main riff are on A, not D. As follows:

|-------------------------------------------------------------------|
|-------------------------------------------------------------------|
|-------------------------------------------------------------------|
|-----9--10---------------------------------10--10--9--9--7---------|
|--7---------------10--12------12-----------------------------------|
|------------8--8----------10-------10------------------------------|

|-------------------------------------------------------------------|
|-------------------------------------------------------------------|
|-------------------------------------------------------------------|
|-----9--10---------------------------------------------------------|
|--7---------------10--12------12------------------9--10--9---------|
|------------8--8----------10-------10-----7--7---------------------|

guest
You may want to rate the tab now too:
select rating
Wanna post a correction for this tab? Suggest correction