Oops, an error
Loading. Please wait.

Be My Baby tab

version 1
version 1

Whole song

Interactive

14,281 views 12 this week
2 commentsread comments
1 2 3 4 5
1 last vote to show rating
add to favorites
×
Save as Personal and add changes to this tab that will be seen only by you. Learn more ›
×
You can save this tab as Personal to edit and correct it or add notes. All changes will be seen only by you. Learn more »
launch autoscroll
font size
0
reset
how to read this tab
guitar tuner
backing track
0:00
0:00
edit
Autoscroll
slow
fast
+/-
esc
set tempo
stop
intro/verse tune your guitar to drop D
----------------------------------------------|
----------------------------------------------|
----------------------------------------------|
-3-2-1-0-1-0-0-1-0-0-1--3-2-1-0-1-0-0-1-0-0-1-|
-3-2-1-0-1-0-0-1-0-0-1--3-2-1-0-1-0-0-1-0-0-1-|
-3-2-1-0-1-0-0-1-0-0-1--3-2-1-0-1-0-0-1-0-0-1-|

pre-chorus
-----------|
-----------|
-----------|
---0-------|
---0-2-3-5-|
-0--0-0-0--|
not too sure about that

chorus
--------------------|
--------------------|
---------/5--5-5-55-|
---------/5--5-5-55-|
-3-5-3-5-/3--3-3-33-|
-3-3-3-3------------|
the last time play this
-------------------|
-------------------|
-------------------|
-------------------|
-3-5-3-5-3-3-5-3-5-|
-3-3-3-3-3-3-3-3-3-|
thats about it

            
            
Suggest correction
Creating personal tab
Creating personal tab
You can edit any tab online and save it as your Personal.

You can edit, replace or remove any tab part or add personal notes – all changes will be seen only by you.

Personal tabs can be accessed anytime from any device, even offline.
Learn more »
Give kudos to tab author, rate the tab!
1 2 3 4 5
comments
print report bad tab
2 comments total.
0 reply
cooljew 153 Feb 23, 2009 11:47 AM

the verse is right but thats the easy part, chorus is way off.

0 reply
cooljew 153 Feb 23, 2009 03:41 PM

I'm pretty sure this is right...

pre chorus:
------------------------------
------------------------------
------------------------------
-----2x--------2x-------------
---4--4-4----5--5-5------2--5-
-44-44-4---55-55-5-------2--5-

Chorus:
-----------------------------
-----------------------------
-----------------------------
------------------55-44-22---
-00-3h4--00-3h4---33-22-00-0-
-00-3h4--00-3h4------------0-

guest
Wanna post a correction for this tab? Suggest correction