Oops, an error
Loading. Please wait.

La Cantata Del Diablo bass

version 1
version 1

Whole song

Interactive

1,809 views 1 this week
no commentswrite comment
1 2 3 4 5
3 more votes to show rating
add to favorites
×
Save as Personal and add changes to this tab that will be seen only by you. Learn more ›
×
You can save this tab as Personal to edit and correct it or add notes. All changes will be seen only by you. Learn more »
launch autoscroll
font size
0
reset
guitar tuner
edit
Autoscroll
slow
fast
+/-
esc
set tempo
stop
Author
Difficulty
                  La Cantata Del Diablo (Missit Me Dominus)                     


                                                                     Mägo  De Oz
Bajo


ESTA ES LA INTRO

     Q    Q    Q       H        Q       Q    Q    Q       H        Q     
G||-----------------|----------------|-----------------|----------------|
D||-----------------|----------------|-----------------|----------------|
A||--0----0----3----|----------------|------------0----|----------------|
E||-----------------|--3-------------|--1----1---------|--0-------------|


  Q    Q    Q       Q    Q    Q       Q    Q    Q       Q    Q    Q     
-----------------|-----------------|-----------------|-----------------|
-----------------|-----------------|-----------------|-----------------|
--0----0----3----|-----------------|--5--------------|-----------------|
-----------------|--3----1----0----|-------0----1----|--3----1----3----|

AKI EMPIEZA LA GUITARRA CON LA FLAUTA

  H.              H.              H.              H.              H.            
---------------|---------------|---------------|---------------|---------------|
---------------|---------------|---------------|---------------|---------------|
--0------------|--L------------|--5------------|--0------------|--5------------|
---------------|---------------|---------------|---------------|---------------|


  Q    Q    Q       H.              H.              H        Q     
-----------------|---------------|---------------|----------------|
-----------------|---------------|---------------|-----------3----|
--0----2----4----|--5------------|--0------------|--5-------------|
-----------------|---------------|---------------|----------------|


  Q    Q    Q       H.              H.              H.            
-----------------|---------------|---------------|---------------|
--5----2---------|---------------|---------------|---------------|
------------3----|--5------------|--0------------|--0------------|
-----------------|---------------|---------------|---------------|


  H.              H.              H.              H        Q     
---------------|---------------|---------------|----------------|
---------------|---------------|---------------|-----------3----|
--5------------|--5------------|--0------------|--5-------------|
---------------|---------------|---------------|----------------|


  Q    Q    Q       H.              H.              H.            
-----------------|---------------|---------------|---------------|
--5----2---------|---------------|---------------|---------------|
------------3----|--5------------|--0------------|--0------------|
-----------------|---------------|---------------|---------------|


  H.              H        Q       H        Q       H        Q     
---------------|----------------|----------------|----------------|
---------------|----------------|----------------|----------------|
--5------------|----------------|----------------|--1--------1----|
---------------|--1--------1----|--1--------1----|----------------|


  H        Q       H        Q       H        Q       H        Q     
----------------|----------------|----------------|----------------|
----------------|----------------|----------------|----------------|
----------------|-----------3----|-----------5----|-----------7----|
--1--------1----|--1-------------|--3-------------|--5-------------|


  H        Q       H        Q       H        Q       H        Q     
----------------|----------------|----------------|----------------|
----------------|----------------|----------------|----------------|
--5--------5----|----------------|----------------|--1--------1----|
----------------|--1--------1----|--1--------1----|----------------|


  H        Q       H        Q       H        Q       H        Q     
----------------|----------------|----------------|----------------|
----------------|----------------|----------------|----------------|
----------------|--1--------1----|--3--------3----|----------------|
--1--------1----|----------------|----------------|--5--------5----|


  H        Q       H        Q       H        Q       Q    Q    Q     
----------------|----------------|----------------|-----------------|
----------------|----------------|----------------|-----------------|
--5--------5----|----------------|--5--------5----|--0----2----4----|
----------------|--5--------5----|----------------|-----------------|


  H        Q       H        Q       H        Q       Q    Q    Q     
----------------|----------------|----------------|-----------------|
----------------|----------------|-----------3----|--5----2---------|
--5--------5----|--0--------0----|--5-------------|------------3----|
----------------|----------------|----------------|-----------------|


  H        Q       H        Q       H        Q       H        Q     
----------------|----------------|----------------|----------------|
----------------|----------------|----------------|----------------|
--5--------5----|--0--------0----|--0--------0----|--5--------5----|
----------------|----------------|----------------|----------------|


  H        Q       H        Q       H        Q       Q    Q    Q     
----------------|----------------|----------------|-----------------|
----------------|----------------|-----------3----|--5----2---------|
--5--------5----|--0--------0----|--5-------------|------------3----|
----------------|----------------|----------------|-----------------|


  H        Q       H        Q       H        Q       H        Q     
----------------|----------------|----------------|----------------|
----------------|----------------|----------------|----------------|
--5--------5----|--0--------0----|--0--------0----|--5--------5----|
----------------|----------------|----------------|----------------|


  H        Q       H        Q       H        Q       H        Q     
----------------|----------------|----------------|----------------|
----------------|----------------|----------------|----------------|
----------------|----------------|--1--------1----|----------------|
--1--------1----|--1--------1----|----------------|--1--------1----|


  H        Q       H        Q       H        Q       H        Q     
----------------|----------------|----------------|----------------|
----------------|----------------|----------------|----------------|
-----------3----|-----------5----|-----------7----|--5--------5----|
--1-------------|--3-------------|--5-------------|----------------|


  H        Q       H        Q       H        Q       H        Q     
----------------|----------------|----------------|----------------|
----------------|----------------|----------------|----------------|
----------------|----------------|--1--------1----|----------------|
--1--------1----|--1--------1----|----------------|--1--------1----|


  H        Q       H        Q       H        Q       H.            
----------------|----------------|----------------|---------------|
----------------|----------------|----------------|---------------|
--1--------1----|--3--------3----|----------------|--5------------|
----------------|----------------|--5--------5----|---------------|


  Q    Q    Q    Q       Q    Q    Q    Q       Q    Q    Q    Q     
----------------------|----------------------|----------------------|
----------------------|----------------------|----------------------|
--5----5----5----5----|--5----5----5----5----|--5----5----5----5----|
----------------------|----------------------|----------------------|


  Q    Q    Q    Q       Q    Q    Q    Q       Q    Q    Q    Q     
----------------------|----------------------|----------------------|
----------------------|----------------------|----------------------|
--5----5----5----5----|--5----5----5----5----|--5----5----5----5----|
----------------------|----------------------|----------------------|


  Q    Q    Q    Q       Q    Q    Q    Q       Q    Q    Q    Q     
----------------------|----------------------|----------------------|
----------------------|----------------------|----------------------|
--5----5----5----5----|--5----5----5----5----|--5----5----5----5----|
----------------------|----------------------|----------------------|


  Q    Q    Q    Q       Q    Q    Q    Q       Q    Q    H         
----------------------|----------------------|---------------------|
----------------------|----------------------|---------------------|
--5----5----5----3----|--5----5----5----5----|--5----5----3--------|
----------------------|----------------------|---------------------|


  Q    Q    Q    Q       Q    Q    Q    Q       Q    Q    Q    Q     
----------------------|----------------------|----------------------|
----------------------|----------------------|----------------------|
--5----5----5----5----|--5----5----5----3----|--5----5----5----5----|
----------------------|----------------------|----------------------|


  Q    Q    H           Q    Q    Q    Q       Q    Q    Q    Q     
---------------------|----------------------|----------------------|
---------------------|----------------------|----------------------|
--5---------5--------|--5----5----5----5----|--5----5----5----3----|
-------5-------------|----------------------|----------------------|


  Q    Q    Q    Q       Q    Q    H           Q    Q    Q    Q     
----------------------|---------------------|----------------------|
----------------------|---------------------|----------------------|
--5----5----5----5----|--5----5----3--------|--5----5----5----5----|
----------------------|---------------------|----------------------|


  Q    Q    Q    Q       Q    Q    Q    Q       Q    Q    H         
----------------------|----------------------|---------------------|
----------------------|----------------------|---------------------|
--5----5----5----3----|--5----5----5----5----|--5---------5--------|
----------------------|----------------------|-------5-------------|


  Q    Q    Q    Q       Q    Q    Q    Q       Q    Q    Q    Q     
----------------------|----------------------|----------------------|
----------------------|----------------------|----------------------|
--5----5----5----5----|--5----5----5----3----|--5----5----5----5----|
----------------------|----------------------|----------------------|


  Q    Q    H           Q    Q    Q    Q       Q    Q    Q    Q     
---------------------|----------------------|----------------------|
---------------------|----------------------|----------------------|
--5----5----3--------|--5----5----5----5----|--5----5----5----3----|
---------------------|----------------------|----------------------|


  Q    Q    Q    Q       Q    Q    H           Q    Q    Q    Q     
----------------------|---------------------|----------------------|
----------------------|---------------------|----------------------|
--5----5----5----5----|--5---------5--------|--5----5----5----5----|
----------------------|-------5-------------|----------------------|


  Q    Q    Q    Q       Q    Q    Q    Q       Q    Q    H         
----------------------|----------------------|---------------------|
----------------------|----------------------|---------------------|
--5----5----5----3----|--5----5----5----5----|--5----5----3--------|
----------------------|----------------------|---------------------|


  Q    Q    Q    Q       Q    Q    Q    Q       Q    Q    Q    Q     
----------------------|----------------------|----------------------|
----------------------|----------------------|----------------------|
--5----5----5----5----|--5----5----5----3----|--5----5----5----5----|
----------------------|----------------------|----------------------|


  Q    Q    H           Q    Q    Q    Q       Q    Q    Q    Q     
---------------------|----------------------|----------------------|
---------------------|----------------------|----------------------|
--5---------5--------|--5----5----5----5----|--5----5----5----3----|
-------5-------------|----------------------|----------------------|


  Q    Q    Q    Q       Q    Q    H           Q    Q    Q    Q     
----------------------|---------------------|----------------------|
----------------------|---------------------|----------------------|
--5----5----5----5----|--5----5----3--------|--5----5----5----5----|
----------------------|---------------------|----------------------|


  Q    Q    Q    Q       Q    Q    Q    Q       Q    Q    H         
----------------------|----------------------|---------------------|
----------------------|----------------------|---------------------|
--5----5----5----3----|--5----5----5----5----|--5---------5--------|
----------------------|----------------------|-------5-------------|


  Q    Q    Q    Q       Q    Q    Q    Q       Q    Q    Q    Q     
----------------------|----------------------|----------------------|
----------------------|----------------------|----------------------|
----------------------|-----------------5----|----------------------|
--0----0----0----0----|--0----0----0---------|--0----0----0----0----|


  Q    Q    H           Q    Q    Q    Q       Q    Q    Q    Q     
---------------------|----------------------|----------------------|
---------------------|----------------------|----------------------|
------------5--------|----------------------|----------------------|
--0----0-------------|--0----0----0----0----|--0----0----0----0----|


  Q    Q    Q    Q       Q    Q    H           Q    Q    Q    Q     
----------------------|---------------------|----------------------|
----------------------|------------2--------|----------------------|
----------------------|-------2-------------|----------------------|
--0----0----0----0----|--0------------------|--0----0----0----0----|


  Q    Q    Q    Q       Q    Q    Q    Q       Q    Q    H         
----------------------|----------------------|---------------------|
----------------------|----------------------|---------------------|
-----------------5----|----------------------|------------5--------|
--0----0----0---------|--0----0----0----0----|--0----0-------------|


  Q    Q    Q    Q       Q    Q    Q    Q       Q    Q    Q    Q     
----------------------|----------------------|----------------------|
----------------------|----------------------|----------------------|
----------------------|----------------------|----------------------|
--0----0----0----0----|--0----0----0----0----|--0----0----0----0----|


  Q    Q       Q    Q    Q    Q       Q    H.              Q    Q    Q    Q     
------------|----------------------|--------------------|----------------------|
------------|----------------------|--------------------|----------------------|
-------2----|----------------------|--------------------|----------------------|
--0---------|--0---------0---------|--0-----------------|--0---------0---------|


  |----3----|    |----3----|                                                 
  Q    Q    Q    Q    Q    Q       Q    Q    Q    Q       Q    H.            
--------------------------------|----------------------|--------------------|
--------------------------------|----------------------|--------------------|
--2---------2----0--------------|----------------------|--------------------|
-------0--------------3----2----|--5---------5---------|--5-----------------|


  Q    Q    Q    Q       S S S S S S S S S S S S S S S S  
----------------------|----------------------------------|
----------------------|----------------------------------|
----------------------|--2-0-----------0-2-0-----------0-|
--0---------0---------|------3-2-0-2-3-------3-2-0-2-3---|


  S S S S S S S S S S S S S S S S    W                   W                 
----------------------------------|-------------------|-------------------|
----------------------------------|-------------------|-------------------|
--2-0-----------0-2-0-----------0-|-------------------|-------------------|
------3-2-0-2-3-------3-2-0-2-3---|--0----------------|--L----------------|


  W                   H        E  Q.        W                 
-------------------|---------------------|-------------------|
-------------------|---------------------|-------------------|
-------------------|---------------------|-------------------|
--0----------------|--L--------L--1------|--0----------------|


  Q    Q    Q    Q       W                   H        E  Q.      
-----------------7----|-------------------|---------------------|
-------6----9---------|-------------------|---------------------|
--7-------------------|-------------------|---------------------|
----------------------|--0----------------|--L--------L--1------|


  W                   E  E  E  Q    E  Q       S S E  E  E  E  Q    E   
-------------------|--7---------------------|--------------------------|
-------------------|-----9--6--9----6-------|--------------------------|
-------------------|-------------------8----|-----------------------5--|
--0----------------|------------------------|--0-0-0-----0-----1-------|


  S S E  Q.     Q.        S S E  H.              E  E  E  Q    E  Q     
-----------------------|----------------------|--7---------------------|
-----------------------|----------------------|-----9--6--9----6-------|
-----------------------|----------------------|-------------------8----|
--0-0-0---------1------|--0-0-0---------------|------------------------|


  W                   W                   W                   W                 
-------------------|-------------------|-------------------|-------------------|
-------------------|-------------------|-------------------|-------------------|
-------------------|-------------------|-------------------|-------------------|
--0----------------|--L----------------|--0----------------|--L----------------|


  H        E.  E.  E     H        E.  E.  E     H        E.  E.  E   
----------------------|----------------------|----------------------|
----------------------|----------------------|----------------------|
----------------------|----------------------|----------------------|
--0--------0---0---0--|-----------0---0---0--|-----------0---0---0--|


  H        E.  E.  E     S S S E  E  E  E  S S S E   
----------------------|-----------------------------|
----------------------|-----------------------------|
----------------------|--7-7-7-7--7--7--7--7-8-8-8--|
-----------0---0---0--|-----------------------------|


  S S S E  E  E  E  S Q       S S S E  E  E  E  S S S E   
---------------------------|-----------------------------|
---------------------------|-----------------------------|
--7-7-7-7--7--7--7--7-5----|--7-7-7-7--7--7--7--7-8-8-8--|
---------------------------|-----------------------------|


  S S S E  E  E  E  S Q       S S S S S S S S S S S S S S S S  
---------------------------|----------------------------------|
---------------------------|----------------------------------|
--7-7-7-7--7--7--7--7-5----|----------------------------------|
---------------------------|--0-0-0-0-0-0-0-0-0-0-0-0-1-1-1-1-|


  S S S S S S S S S S S S S S S S    S S S S S S S S S S S S S S S S  
----------------------------------|----------------------------------|
----------------------------------|----------------------------------|
--------------------------5-5-5-5-|----------------------------------|
--0-0-0-0-0-0-0-0-0-0-0-0---------|--0-0-0-0-0-0-0-0-0-0-0-0-1-1-1-1-|


  S S S S S S S S S S S S S S S S    E  S S S S S S S S S S S S S S  
----------------------------------|---------------------------------|
----------------------------------|---------------------------------|
--------------------------5-5-5-5-|---------------------------------|
--0-0-0-0-0-0-0-0-0-0-0-0---------|--5--5-5-5-5-5-5-5-5-5-5-5-5-5-5-|


  S S S S S S S S S S S S S S S S    E  S S S S S S E  S S S S S S  
----------------------------------|--------------------------------|
----------------------------------|--------------------------------|
----------------------------------|--3--3-3-3-3-3-3----------------|
--5-5-5-5-5-5-5-5-5-5-5-5-5-5-5-5-|-----------------3--3-3-3-3-3-3-|


  E  S S E  S S E  S S E  S S    E  S S S S S S E.  E.  E   
------------------------------|----------------------------|
------------------------------|-----------------5---3---2--|
--3--3-3----------------------|--3--3-3-3-3-3-3------------|
---------5--5-5-0--0-0-5--5-5-|----------------------------|


  E  S S S S S S S S S S S S S S    E  S S S S S S E  S S E  S S  
---------------------------------|-------------------------------|
---------------------------------|-------------------------------|
--0--0-0-0-0-0-0-0-0-0-0-0-0-0-0-|--5--5-5-5-5-5-5-2--2-2-3--3-3-|
---------------------------------|-------------------------------|


  E  S S S S S S S S S S S S S S    E  S S S S S S S S S S S S S S  
---------------------------------|---------------------------------|
---------------------------------|---------------------------------|
---------------------------------|---------------------------------|
--5--5-5-5-5-5-5-5-5-5-5-5-5-5-5-|--5--5-5-5-5-5-5-5-5-5-5-5-5-5-5-|


  S S S S S S S S S S S S S S S S    E  S S S S S S E  S S S S S S  
----------------------------------|--------------------------------|
----------------------------------|--------------------------------|
----------------------------------|--3--3-3-3-3-3-3----------------|
--5-5-5-5-5-5-5-5-5-5-5-5-5-5-5-5-|-----------------3--3-3-3-3-3-3-|


  E  S S E  S S E  S S E  S S    E  S S S S S S E.  E.  E   
------------------------------|----------------------------|
------------------------------|-----------------5---3---2--|
--3--3-3----------------------|--3--3-3-3-3-3-3------------|
---------5--5-5-0--0-0-5--5-5-|----------------------------|


  E  S S S S S S S S S S S S S S    E  S S S S S S E  S S E  S S  
---------------------------------|-------------------------------|
---------------------------------|-------------------------------|
--0--0-0-0-0-0-0-0-0-0-0-0-0-0-0-|--5--5-5-5-5-5-5-2--2-2-3--3-3-|
---------------------------------|-------------------------------|


                                                TP                
  Q    Q    Q    Q       Q    Q    Q    Q       W                 
----------------------|----------------------|-------------------|
----------------------|--7-------------------|-------------------|
------------6----9----|-------9----6---------|--7----------------|
--5----8--------------|-----------------8----|-------------------|


                      TP                  TP                  TP                
  W                   W                   W                   W                 
-------------------|-------------------|-------------------|-------------------|
-------------------|-------------------|-------------------|-------------------|
--L----------------|--3----------------|--2----------------|--0----------------|
-------------------|-------------------|-------------------|-------------------|


  TP                  TP                  TP                  TP                
  W                   W                   W                   W                 
-------------------|-------------------|-------------------|-------------------|
-------------------|-------------------|-------------------|-------------------|
-------------------|-------------------|-------------------|--7----------------|
--0----------------|--5----------------|--7----------------|-------------------|


  TP                  TP                  TP                  TP                
  W                   W                   W                   W                 
-------------------|-------------------|-------------------|-------------------|
-------------------|-------------------|-------------------|-------------------|
--2----------------|--3----------------|-------------------|-------------------|
-------------------|-------------------|--3----------------|--5----------------|


  TP                  TP       TP          TP                
  W                   H        H           W                 
-------------------|--------------------|-------------------|
-------------------|--------------------|-------------------|
-------------------|-----------5--------|--7----------------|
--0----------------|--3-----------------|-------------------|


  E  S S E  S S E  S S E  S S     E   S  S  E   S  S E  S S E  S S  
------------------------------|------------------------------------|
------------------------------|------------------------------------|
--7--7-7-7--7-7-8--8-8-8--8-8-|--10--10-10-10--10-10-7--7-7-7--7-7-|
------------------------------|------------------------------------|


  E  S S E  S S E  S S E  S S    E  S S E  S S E  S S E  S S  
------------------------------|------------------------------|
------------------------------|------------------------------|
--7--7-7-7--7-7-5--5-5-5--5-5-|--5--5-5-3--3-3---------------|
------------------------------|----------------5--5-5-5--5-5-|


  |----3----|                                        |----3----|               
  Q    Q    Q    Q    Q        H        Q    Q       Q    Q    Q    Q    Q     
---------------------------|----------------------|---------------------------|
---------------------------|----------------------|---------------------------|
--7----7----7----8---------|--10--------7---------|--7---------7----5---------|
---------------------------|----------------------|-------5-------------------|


  |----3----|                                              
  Q    Q    Q    H           W                   H         
--------------------------|-------------------|-----------|
--------------------------|-------------------|-----------|
--5----3----2-------------|-------------------|-----------|
-----------------0--------|--L----------------|--L--------|


  E  S S S S S S S S S S S S S S    S S S S S S S S S S S S S S S S  
---------------------------------|----------------------------------|
---------------------------------|----------------------------------|
---------------------------------|----------------------------------|
--5--5-5-5-5-5-5-5-5-5-5-5-5-5-5-|--5-5-5-5-5-5-5-5-5-5-5-5-5-5-5-5-|


  E  S S S S S S E  S S S S S S    E  S S E  S S E  S S E  S S  
--------------------------------|------------------------------|
--------------------------------|------------------------------|
--3--3-3-3-3-3-3----------------|--3--3-3----------------------|
-----------------3--3-3-3-3-3-3-|---------5--5-5-0--0-0-5--5-5-|


  E  S S S S S S E.  E.  E     E  S S S S S S S S S S S S S S  
----------------------------|---------------------------------|
-----------------5---3---2--|---------------------------------|
--3--3-3-3-3-3-3------------|--0--0-0-0-0-0-0-0-0-0-0-0-0-0-0-|
----------------------------|---------------------------------|


  E  S S S S S S E  S S E  S S    E  S S S S S S S S S S S S S S  
-------------------------------|---------------------------------|
-------------------------------|---------------------------------|
--5--5-5-5-5-5-5-2--2-2-3--3-3-|---------------------------------|
-------------------------------|--5--5-5-5-5-5-5-5-5-5-5-5-5-5-5-|


  E  S S S S S S S S S S S S S S    S S S S S S S S S S S S S S S S  
---------------------------------|----------------------------------|
---------------------------------|----------------------------------|
---------------------------------|----------------------------------|
--5--5-5-5-5-5-5-5-5-5-5-5-5-5-5-|--5-5-5-5-5-5-5-5-5-5-5-5-5-5-5-5-|


  E  S S S S S S E  S S S S S S    E  S S E  S S E  S S E  S S  
--------------------------------|------------------------------|
--------------------------------|------------------------------|
--3--3-3-3-3-3-3----------------|--3--3-3----------------------|
-----------------3--3-3-3-3-3-3-|---------5--5-5-0--0-0-5--5-5-|


  E  S S S S S S E.  E.  E     E  S S S S S S S S S S S S S S  
----------------------------|---------------------------------|
-----------------5---3---2--|---------------------------------|
--3--3-3-3-3-3-3------------|--0--0-0-0-0-0-0-0-0-0-0-0-0-0-0-|
----------------------------|---------------------------------|


  E  S S S S S S E  S S E  S S    W                   H        E  Q.      
-------------------------------|-------------------|---------------------|
-------------------------------|-------------------|---------------------|
--5--5-5-5-5-5-5-2--2-2-3--3-3-|-------------------|---------------------|
-------------------------------|--0----------------|--L--------L--1------|


  W                   Q    Q    Q    Q       W                 
-------------------|-----------------7----|-------------------|
-------------------|-------6----9---------|-------------------|
-------------------|--7-------------------|-------------------|
--0----------------|----------------------|--5----------------|


                                           |--3--|  |--3--|  |--3--|  |--3--|   
  W                   H        H           E  E  E  E  E  E  E  E  E  E  E  E   
-------------------|--------------------|--------------------------------------|
-------------------|--------------------|--------------------------------------|
--7----------------|-----------5--------|--------------------------------------|
-------------------|--3-----------------|--0--0--0--0--0--0--0--0--0--0--0--0--|


  |--3-|  |--3--|  |--3-|  |--3--|     |--3-|  |--3--|  |--3-|  |--3--|   
  Q    E  E  E  E  Q    E  E  E  E     Q    E  E  E  E  Q    E  E  E  E   
------------------------------------|------------------------------------|
------------------------------------|------------------------------------|
------------------------------------|--7----7--7--7--7--7----7--7--7--7--|
--5----5--5--5--5--5----5--5--5--5--|------------------------------------|


  |--3-|  |--3--|  |--3-|  |--3--|                              
  Q    E  E  E  E  Q    E  E  E  E     S S E  E  E  E  Q    E   
------------------------------------|--------------------------|
------------------------------------|--------------------------|
-------------------5----5--5--5--5--|-----------------------5--|
--3----3--3--3--3-------------------|--0-0-0-----0-----1-------|


  S S E  Q.     Q.                                                        
-----------------------|---------|---------|---------|---------|---------|
-----------------------|---------|---------|---------|---------|---------|
-----------------------|---------|---------|---------|---------|---------|
--0-0-0----------------|---------|---------|---------|---------|---------|


                                TP                  TP                
                                W                   W                 
---------|---------|---------|-------------------|-------------------|
---------|---------|---------|-------------------|-------------------|
---------|---------|---------|--7----------------|--2----------------|
---------|---------|---------|-------------------|-------------------|


  TP                  TP                  TP                  TP                
  W                   W                   W                   W                 
-------------------|-------------------|-------------------|-------------------|
-------------------|-------------------|-------------------|-------------------|
--3----------------|-------------------|-------------------|-------------------|
-------------------|--3----------------|--5----------------|--0----------------|


  TP       TP          TP                                           
  H        H           W                   E  E  E  E  E  E  E  E   
--------------------|-------------------|--------------------------|
--------------------|-------------------|--------------------------|
-----------5--------|--7----------------|--7-----7-----8-----8-----|
--3-----------------|-------------------|--------------------------|


   E  E   E  E  E  E  E  E     E  E  E  E  E  E  E  E     Q    Q    H         
----------------------------|--------------------------|---------------------|
----------------------------|--------------------------|---------------------|
--10-----10-----7-----7-----|--7-----7-----5-----5-----|--5----3-------------|
----------------------------|--------------------------|------------5--------|


  |----3----|                                        |----3----|               
  Q    Q    Q    Q    Q        H        Q    Q       Q    Q    Q    Q    Q     
---------------------------|----------------------|---------------------------|
---------------------------|----------------------|---------------------------|
--7----7----7----8---------|--10--------7---------|--7---------7----5---------|
---------------------------|----------------------|-------5-------------------|


  |----3----|                                              
  Q    Q    Q    H           W                   H         
--------------------------|-------------------|-----------|
--------------------------|-------------------|-----------|
--5----3----2-------------|-------------------|-----------|
-----------------0--------|--L----------------|--L--------|


  E  S S S S S S S S S S S S S S    S S S S S S S S S S S S S S S S  
---------------------------------|----------------------------------|
---------------------------------|----------------------------------|
---------------------------------|----------------------------------|
--5--5-5-5-5-5-5-5-5-5-5-5-5-5-5-|--5-5-5-5-5-5-5-5-5-5-5-5-5-5-5-5-|


  E  S S S S S S E  S S S S S S    E  S S E  S S E  S S E  S S  
--------------------------------|------------------------------|
--------------------------------|------------------------------|
--3--3-3-3-3-3-3----------------|--3--3-3----------------------|
-----------------3--3-3-3-3-3-3-|---------5--5-5-0--0-0-5--5-5-|


  E  S S S S S S E.  E.  E     E  S S S S S S S S S S S S S S  
----------------------------|---------------------------------|
-----------------5---3---2--|---------------------------------|
--3--3-3-3-3-3-3------------|--0--0-0-0-0-0-0-0-0-0-0-0-0-0-0-|
----------------------------|---------------------------------|


  E  S S S S S S E  S S E  S S    E  S S S S S S S S S S S S S S  
-------------------------------|---------------------------------|
-------------------------------|---------------------------------|
--5--5-5-5-5-5-5-2--2-2-3--3-3-|---------------------------------|
-------------------------------|--5--5-5-5-5-5-5-5-5-5-5-5-5-5-5-|


  E  S S S S S S S S S S S S S S    S S S S S S S S S S S S S S S S  
---------------------------------|----------------------------------|
---------------------------------|----------------------------------|
---------------------------------|----------------------------------|
--5--5-5-5-5-5-5-5-5-5-5-5-5-5-5-|--5-5-5-5-5-5-5-5-5-5-5-5-5-5-5-5-|


  E  S S S S S S E  S S S S S S    E  S S E  S S E  S S E  S S  
--------------------------------|------------------------------|
--------------------------------|------------------------------|
--3--3-3-3-3-3-3----------------|--3--3-3----------------------|
-----------------3--3-3-3-3-3-3-|---------5--5-5-0--0-0-5--5-5-|


  E  S S S S S S E.  E.  E     E  S S S S S S S S S S S S S S  
----------------------------|---------------------------------|
-----------------5---3---2--|---------------------------------|
--3--3-3-3-3-3-3------------|--0--0-0-0-0-0-0-0-0-0-0-0-0-0-0-|
----------------------------|---------------------------------|


  E  S S S S S S E  S S E  S S    S S S S S S S S S S S S S S S S  
-------------------------------|----------------------------------|
-------------------------------|----------------------------------|
--5--5-5-5-5-5-5-2--2-2-3--3-3-|----------------------------------|
-------------------------------|--5-5-5-5-5-5-5-5-5-5-5-5-5-5-5-5-|


  S S S S S S S S S S S S S S S S    S S S S S S S S S S S S S S S S  
----------------------------------|----------------------------------|
----------------------------------|----------------------------------|
--8-8-8-8-8-8-8-8-7-7-7-7-7-7-7-7-|--5-5-5-5-5-5-5-5-3-3-3-3-3-3-3-3-|
----------------------------------|----------------------------------|


  S S S S S S S S S S S S S S S S    S S S S S S S S S S S S S S S S  
----------------------------------|----------------------------------|
----------------------------------|----------------------------------|
--8-8-8-8-8-8-8-8-7-7-7-7-7-7-7-7-|--5-5-5-5-5-5-5-5-3-3-3-3-3-3-3-3-|
----------------------------------|----------------------------------|


  |--3-|        |--3-|           |----------3----------|     
  Q    H        Q    H           Q    W                Q     
------------------------------|-----------------------------|
------------------------------|-----------------------------|
--5-------------5-------------|--5--------------------------|
------------------------------|-----------------------------|


  |--3-|        |--3-|           |--3-|        3             
  Q    H        Q    H           Q    H        H.            
------------------------------|-----------------------------|
------------------------------|-----------------------------|
--5-------------5-------------|-----------------------------|
------------------------------|--5----6--------L------------|


  |--3-|        |--3-|           |----------3----------|     
  Q    H        Q    H           Q    W                Q     
------------------------------|-----------------------------|
------------------------------|-----------------------------|
--5-------------5-------------|--5--------------------------|
------------------------------|-----------------------------|


  |--3-|        |--3-|           |--3-|        3             
  Q    H        Q    H           Q    H        H.            
------------------------------|-----------------------------|
------------------------------|-----------------------------|
--5-------------5-------------|-----------------------------|
------------------------------|--5----6--------L------------|


  W                                                                             
-------------------|-------------------|-------------------|-------------------|
-------------------|-------------------|-------------------|-------------------|
-------------------|-------------------|-------------------|-------------------|
--L----------------|-------------------|-------------------|-------------------|


-------------------|-------------------|-------------------|-------------------|
-------------------|-------------------|-------------------|-------------------|
-------------------|-------------------|-------------------|-------------------|
-------------------|-------------------|-------------------|-------------------|


-------------------|-------------------|-------------------|-------------------|
-------------------|-------------------|-------------------|-------------------|
-------------------|-------------------|-------------------|-------------------|
-------------------|-------------------|-------------------|-------------------|


-------------------|-------------------|-------------------|-------------------|
-------------------|-------------------|-------------------|-------------------|
-------------------|-------------------|-------------------|-------------------|
-------------------|-------------------|-------------------|-------------------|


-------------------|-------------------|-------------------|-------------------|
-------------------|-------------------|-------------------|-------------------|
-------------------|-------------------|-------------------|-------------------|
-------------------|-------------------|-------------------|-------------------|


-------------------|-------------------|-------------------|-------------------|
-------------------|-------------------|-------------------|-------------------|
-------------------|-------------------|-------------------|-------------------|
-------------------|-------------------|-------------------|-------------------|


-------------------|-------------------|-------------------|-------------------|
-------------------|-------------------|-------------------|-------------------|
-------------------|-------------------|-------------------|-------------------|
-------------------|-------------------|-------------------|-------------------|


-------------------|-------------------|-------------------|-------------------|
-------------------|-------------------|-------------------|-------------------|
-------------------|-------------------|-------------------|-------------------|
-------------------|-------------------|-------------------|-------------------|


                      W                   W                   W                 
-------------------|-------------------|-------------------|-------------------|
-------------------|--2----------------|-------------------|-------------------|
-------------------|-------------------|--2----------------|--3----------------|
-------------------|-------------------|-------------------|-------------------|


  W                   W                   W                 
-------------------|-------------------|-------------------|
-------------------|-------------------|-------------------|
-------------------|-------------------|-------------------|
--3----------------|--5----------------|--0----------------|


  H        H           H.              H.              H.            
--------------------|---------------|---------------|---------------|
--------------------|---------------|---------------|---------------|
-----------5--------|--7------------|---------------|--7------------|
--3-----------------|---------------|--7------------|---------------|


  H.              H.              H.              H.              H.            
---------------|---------------|---------------|---------------|---------------|
---------------|---------------|---------------|---------------|---------------|
--7------------|--7------------|--7------------|--7------------|---------------|
---------------|---------------|---------------|---------------|--7------------|


  H.              H.              H.              H.              H.            
---------------|---------------|---------------|---------------|---------------|
---------------|---------------|---------------|---------------|---------------|
--7------------|---------------|--7------------|--5------------|--7------------|
---------------|--7------------|---------------|---------------|---------------|


  H.              H.              H.              H.              H.            
---------------|---------------|---------------|---------------|---------------|
---------------|---------------|---------------|---------------|---------------|
---------------|---------------|--7------------|--7------------|---------------|
--7------------|--7------------|---------------|---------------|--7------------|


  H.              H.              H.              H.              H.            
---------------|---------------|---------------|---------------|---------------|
---------------|---------------|---------------|---------------|---------------|
--7------------|--5------------|--7------------|---------------|---------------|
---------------|---------------|---------------|--7------------|--7------------|


  H.              H        Q       H        Q       H        Q     
---------------|----------------|----------------|----------------|
---------------|----------------|----------------|----------------|
--7------------|----------------|----------------|--3--------3----|
---------------|--3--------3----|--3--------3----|----------------|


  H        Q       H        Q       H        Q       H        Q     
----------------|----------------|----------------|----------------|
----------------|-----------0----|-----------2----|-----------4----|
----------------|----------------|--0-------------|--2-------------|
--3--------3----|--3-------------|----------------|----------------|


  H        Q       H        Q       H        Q       H        Q     
----------------|----------------|----------------|----------------|
--2--------2----|----------------|----------------|----------------|
----------------|----------------|----------------|--3--------3----|
----------------|--3--------3----|--3--------3----|----------------|


  H        Q       H        Q       H        Q       H        Q     
----------------|----------------|----------------|----------------|
----------------|----------------|--0--------0----|----------------|
----------------|--3--------3----|----------------|--2--------2----|
--3--------3----|----------------|----------------|----------------|


  H.              H.              H.              H.              H.            
---------------|---------------|---------------|---------------|---------------|
--2------------|---------------|--2------------|---------------|---------------|
---------------|--2------------|---------------|--2------------|---------------|
---------------|---------------|---------------|---------------|--3------------|


  H.              H.              H.              H.              H.            
---------------|---------------|---------------|---------------|---------------|
---------------|---------------|---------------|---------------|---------------|
--5------------|--3------------|---------------|---------------|--5------------|
---------------|---------------|--0------------|--3------------|---------------|


  H.              H.              H.              H.              H.            
---------------|---------------|---------------|---------------|---------------|
---------------|---------------|---------------|--2------------|---------------|
--2------------|--2------------|---------------|---------------|--3------------|
---------------|---------------|--3------------|---------------|---------------|


  H.              H.              H.              H.              H.            
---------------|---------------|---------------|---------------|---------------|
---------------|---------------|--0------------|--2------------|--2------------|
---------------|--3------------|---------------|---------------|---------------|
--0------------|---------------|---------------|---------------|---------------|


  H.              H        Q                                     
---------------|----------------|---------------|---------------|
--2------------|--2-------------|---------------|---------------|
---------------|----------------|---------------|---------------|
---------------|----------------|---------------|---------------|


---------------|---------------|---------------|---------------|---------------|
---------------|---------------|---------------|---------------|---------------|
---------------|---------------|---------------|---------------|---------------|
---------------|---------------|---------------|---------------|---------------|


---------------|---------------|---------------|---------------|---------------|
---------------|---------------|---------------|---------------|---------------|
---------------|---------------|---------------|---------------|---------------|
---------------|---------------|---------------|---------------|---------------|


                                  H.              H.              H.            
---------------|---------------|---------------|---------------|---------------|
---------------|---------------|---------------|---------------|---------------|
---------------|---------------|--7------------|---------------|--7------------|
---------------|---------------|---------------|--7------------|---------------|


  Q    Q     Q       H.              H.              H.            
------------------|---------------|---------------|---------------|
--9----7----------|---------------|---------------|---------------|
------------10----|--7------------|---------------|--7------------|
------------------|---------------|--7------------|---------------|


  H.              H.              H.              H.              H.            
---------------|---------------|---------------|---------------|---------------|
---------------|---------------|---------------|---------------|---------------|
--5------------|--7------------|---------------|---------------|--7------------|
---------------|---------------|--7------------|--7------------|---------------|


  H.              H.              H.              H.              H.            
---------------|---------------|---------------|---------------|---------------|
---------------|---------------|---------------|---------------|---------------|
--7------------|---------------|--7------------|--5------------|--7------------|
---------------|--7------------|---------------|---------------|---------------|


  H.              H.              H.              H        Q     
---------------|---------------|---------------|----------------|
---------------|---------------|---------------|----------------|
---------------|---------------|--7------------|----------------|
--7------------|--7------------|---------------|--3--------3----|


  H        Q       H        Q       H        Q       H        Q     
----------------|----------------|----------------|----------------|
----------------|----------------|----------------|-----------0----|
----------------|--3--------3----|----------------|----------------|
--3--------3----|----------------|--3--------3----|--3-------------|


  H        Q       H        Q       H        Q       H        Q     
----------------|----------------|----------------|----------------|
-----------2----|-----------4----|--2--------2----|----------------|
--0-------------|--2-------------|----------------|----------------|
----------------|----------------|----------------|--3--------3----|


  H        Q       H        Q       H        Q       H        Q     
----------------|----------------|----------------|----------------|
----------------|----------------|----------------|----------------|
----------------|--3--------3----|----------------|--3--------3----|
--3--------3----|----------------|--3--------3----|----------------|


  H        Q       H        Q       H.              H.            
----------------|----------------|---------------|---------------|
--0--------0----|----------------|--2------------|---------------|
----------------|--2--------2----|---------------|--2------------|
----------------|----------------|---------------|---------------|


  H.              Q    H           H.              H.            
---------------|----------------|---------------|---------------|
--2------------|--2-------------|---------------|---------------|
---------------|----------------|---------------|--5------------|
---------------|----------------|--3------------|---------------|


  H.              H.              H.              H.              H.            
---------------|---------------|---------------|---------------|---------------|
---------------|---------------|---------------|---------------|---------------|
--3------------|---------------|---------------|--5------------|--2------------|
---------------|--0------------|--3------------|---------------|---------------|


  H.              H.              H.              H.              H.            
---------------|---------------|---------------|---------------|---------------|
---------------|---------------|--2------------|---------------|---------------|
--2------------|---------------|---------------|--3------------|---------------|
---------------|--3------------|---------------|---------------|--0------------|


  H.              H.              H.              H.              H.            
---------------|---------------|---------------|---------------|---------------|
---------------|--0------------|--2------------|--2------------|---------------|
--3------------|---------------|---------------|---------------|---------------|
---------------|---------------|---------------|---------------|--3------------|


  H.              H.              H.              H.              H.            
---------------|---------------|---------------|---------------|---------------|
---------------|---------------|---------------|---------------|---------------|
--5------------|--3------------|---------------|---------------|--5------------|
---------------|---------------|--0------------|--3------------|---------------|


  H.              H.              H.              H.              H.            
---------------|---------------|---------------|---------------|---------------|
---------------|---------------|---------------|--2------------|---------------|
--2------------|--2------------|---------------|---------------|--3------------|
---------------|---------------|--3------------|---------------|---------------|


  H.              H.              H.              H.              H.            
---------------|---------------|---------------|---------------|---------------|
---------------|---------------|--0------------|--2------------|--L------------|
---------------|--3------------|---------------|---------------|---------------|
--0------------|---------------|---------------|---------------|---------------|


  H.              H.              H.              H.              H.            
---------------|---------------|---------------|---------------|---------------|
---------------|---------------|---------------|---------------|---------------|
---------------|---------------|---------------|---------------|---------------|
--3------------|--L------------|--0------------|--L------------|--3------------|


  H.              H.              H.              H.              H.            
---------------|---------------|---------------|---------------|---------------|
---------------|---------------|---------------|---------------|---------------|
---------------|--2------------|--L------------|---------------|---------------|
--L------------|---------------|---------------|--3------------|--L------------|


  H.              H.              H.              H.              H.            
---------------|---------------|---------------|---------------|---------------|
---------------|---------------|---------------|---------------|---------------|
---------------|---------------|---------------|--5------------|---------------|
--0------------|--L------------|--3------------|---------------|--0------------|


  H.              H.              H.              H.              H.            
---------------|---------------|---------------|---------------|---------------|
---------------|---------------|---------------|---------------|---------------|
---------------|---------------|---------------|---------------|---------------|
--L------------|--3------------|--L------------|--0------------|--L------------|


  H.              H.              H.              H.              H.            
---------------|---------------|---------------|---------------|---------------|
---------------|---------------|---------------|---------------|---------------|
---------------|---------------|--2------------|--L------------|---------------|
--3------------|--L------------|---------------|---------------|--3------------|


  H.              H.              H.              H.              H.            
---------------|---------------|---------------|---------------|---------------|
---------------|---------------|---------------|---------------|---------------|
---------------|---------------|---------------|---------------|--5------------|
--L------------|--0------------|--L------------|--3------------|---------------|


  H.              H.              Q    Q    Q       Q    Q    Q     
---------------|---------------|-----------------|-----------------|
---------------|---------------|-----------------|-----------------|
---------------|---------------|--2----2----2----|--2----2----2----|
--0------------|--L------------|-----------------|-----------------|


  Q    Q    Q        Q    Q    Q       Q    Q    Q    Q     
-----------------|------------------|----------------------|
-----------------|------------------|----------------------|
--5----5----5----|--10----9----5----|--7----7----7----7----|
-----------------|------------------|----------------------|


  Q    Q    Q    Q        Q     Q     Q     Q       Q    Q     Q     Q     
----------------------|--------------------------|------------------------|
----------------------|--------------------------|------------------------|
--5----5----5----5----|--10----10----10----10----|------------------------|
----------------------|--------------------------|--8----8----10----10----|


  Q    Q    Q    Q       Q    Q    Q    Q        Q     Q     Q     Q     
----------------------|----------------------|--------------------------|
----------------------|----------------------|--------------------------|
--7----7----7----7----|--5----5----5----5----|--10----10----10----10----|
----------------------|----------------------|--------------------------|


                           |--3--|  |--3--|  |--3--|  |--3--|   
  Q    Q     Q     Q       E  E  E  E  E  E  E  E  E  E  E  E   
------------------------|--------------------------------------|
------------------------|--------------------------------------|
------------------------|--------------------------------------|
--8----8----10----10----|--0--0--0--0--0--0--0--0--0--0--0--0--|


  |--3--|  |--3--|               |--3-|  |--3-|  |--3-|  |--3-|   
  E  E  E  E  E  E  Q    Q       Q    E  Q    E  Q    E  Q    E   
------------------------------|----------------------------------|
------------------------------|----------------------------------|
------------------------------|--7----7--7----7--7----7--7----7--|
--0--0--0--0--0--0--0---------|----------------------------------|


  |--3-|  |--3-|  |--3-|  |--3-|     |--3-|  |--3-|  |--3-|  |--3-|   
  Q    E  Q    E  Q    E  Q    E     Q    E  Q    E  Q    E  Q    E   
----------------------------------|----------------------------------|
----------------------------------|----------------------------------|
--5----5--5----5--7----7--7----7--|--7----7--7----7--7----7--7----7--|
----------------------------------|----------------------------------|


            |--3-|  |--3-|     |--3-|  |--3-|  |--3-|  |--3-|   
  Q    Q    Q    E  Q    E     Q    E  Q    E  Q    E  Q    E   
----------------------------|----------------------------------|
----------------------------|----------------------------------|
-------5--------------------|--7----7--7----7--7----7--7----7--|
--5---------7----7--7----7--|----------------------------------|


  |--3-|  |--3-|  |--3-|  |--3-|     |--3-|  |--3-|  |--3-|  |--3-|   
  Q    E  Q    E  Q    E  Q    E     Q    E  Q    E  Q    E  Q    E   
----------------------------------|----------------------------------|
----------------------------------|----------------------------------|
--5----5--5----5--7----7--7----7--|--7----7--7----7--7----7--7----7--|
----------------------------------|----------------------------------|


            |--3-|  |--3-|     |--3-|  |--3--|  |--3-|  |--3--|   
  Q    Q    Q    E  Q    E     Q    E  E  E  E  Q    E  E  E  E   
----------------------------|------------------------------------|
----------------------------|------------------------------------|
-------5--------------------|------------------------------------|
--5---------7----7--7----7--|--5----5--5--5--5--5----5--5--5--5--|


  |--3-|  |--3--|  |--3-|  |--3--|     |--3-|  |--3--|  |--3-|  |--3--|   
  Q    E  E  E  E  Q    E  E  E  E     Q    E  E  E  E  Q    E  E  E  E   
------------------------------------|------------------------------------|
------------------------------------|------------------------------------|
--7----7--7--7--7--7----7--7--7--7--|-------------------5----5--5--5--5--|
------------------------------------|--3----3--3--3--3-------------------|


  |--3-|  |--3-|  |--3-|  |--3-|     |--3-|  |--3-|  |--3-|  |--3-|   
  Q    E  Q    E  Q    E  Q    E     Q    E  Q    E  Q    E  Q    E   
----------------------------------|----------------------------------|
----------------------------------|----------------------------------|
--7----7--7----7--7----7--7----7--|--5----5--5----5--7----7--7----7--|
----------------------------------|----------------------------------|


  |--3-|  |--3-|  |--3-|  |--3-|               |--3-|  |--3-|   
  Q    E  Q    E  Q    E  Q    E     Q    Q    Q    E  Q    E   
----------------------------------|----------------------------|
----------------------------------|----------------------------|
--7----7--7----7--7----7--7----7--|-------5--------------------|
----------------------------------|--5---------7----7--7----7--|


  |--3-|  |--3-|  |--3-|  |--3-|     |--3-|  |--3-|  |--3-|  |--3-|   
  Q    E  Q    E  Q    E  Q    E     Q    E  Q    E  Q    E  Q    E   
----------------------------------|----------------------------------|
----------------------------------|----------------------------------|
--7----7--7----7--7----7--7----7--|--5----5--5----5--7----7--7----7--|
----------------------------------|----------------------------------|


  |--3-|  |--3-|  |--3-|  |--3-|               |--3-|  |--3-|   
  Q    E  Q    E  Q    E  Q    E     Q    Q    Q    E  Q    E   
----------------------------------|----------------------------|
----------------------------------|----------------------------|
--7----7--7----7--7----7--7----7--|-------5--------------------|
----------------------------------|--5---------7----7--7----7--|


  |--3-|  |--3--|  |--3-|  |--3--|     |--3-|  |--3--|  |--3-|  |--3--|   
  Q    E  E  E  E  Q    E  E  E  E     Q    E  E  E  E  Q    E  E  E  E   
------------------------------------|------------------------------------|
------------------------------------|------------------------------------|
------------------------------------|--7----7--7--7--7--7----7--7--7--7--|
--5----5--5--5--5--5----5--5--5--5--|------------------------------------|


  |--3-|  |--3--|  |--3-|  |--3--|     |--3--|  |--3--|  |--3--|  |--3--|   
  Q    E  E  E  E  Q    E  E  E  E     E  E  E  E  E  E  E  E  E  E  E  E   
------------------------------------|--------------------------------------|
------------------------------------|--------------------------------------|
-------------------5----5--5--5--5--|--7--7--7--7--7--7--7--7--7--7--7--7--|
--3----3--3--3--3-------------------|--------------------------------------|


  |--3-|  |--3--|  |--3-|  |--3--|     |--3-|  |--3--|  |--3-|  |--3--|   
  Q    E  E  E  E  Q    E  E  E  E     Q    E  E  E  E  Q    E  E  E  E   
------------------------------------|------------------------------------|
------------------------------------|------------------------------------|
------------------------------------|--7----7--7--7--7--7----7--7--7--7--|
--5----5--5--5--5--5----5--5--5--5--|------------------------------------|


  |--3-|  |--3--|  |--3-|  |--3--|                          
  Q    E  E  E  E  Q    E  E  E  E     Q    Q    Q    Q     
------------------------------------|----------------------|
------------------------------------|----------------------|
-------------------5----5--5--5--5--|--7----7----7----7----|
--3----3--3--3--3-------------------|----------------------|


  Q    Q    Q    Q       Q    Q    Q    Q       Q    Q    H         
----------------------|----------------------|---------------------|
----------------------|----------------------|---------------------|
--7----7----7----5----|--7----7----7----7----|--7----7----5--------|
----------------------|----------------------|---------------------|


  Q    Q    Q    Q       Q    Q    Q    Q       Q    Q    Q    Q     
----------------------|----------------------|----------------------|
----------------------|----------------------|----------------------|
--7----7----7----7----|--7----7----7----7----|--7----7----7----7----|
----------------------|----------------------|----------------------|


  Q    Q    H           Q    Q    Q    Q       Q    Q    Q    Q     
---------------------|----------------------|----------------------|
---------------------|----------------------|----------------------|
--7---------7--------|--7----7----7----7----|--7----7----7----5----|
-------7-------------|----------------------|----------------------|


  Q    Q    Q    Q       Q    Q    H           Q    Q    Q    Q     
----------------------|---------------------|----------------------|
----------------------|---------------------|----------------------|
--7----7----7----7----|--7----7----5--------|--7----7----7----7----|
----------------------|---------------------|----------------------|


  Q    Q    Q    Q       Q    Q    Q    Q       Q    Q    H         
----------------------|----------------------|---------------------|
----------------------|----------------------|---------------------|
--7----7----7----5----|--7----7----7----7----|--7---------7--------|
----------------------|----------------------|-------7-------------|


  Q    Q    Q    Q       Q    Q    Q    Q       Q    Q    Q    Q     
----------------------|----------------------|----------------------|
----------------------|----------------------|----------------------|
--0----0----0----0----|--0----0----0---------|--0----0----0----0----|
----------------------|-----------------3----|----------------------|


  Q    Q    H           Q    Q    Q    Q       Q    Q    Q    Q     
---------------------|----------------------|----------------------|
---------------------|----------------------|----------------------|
--0----0-------------|--0----0----0----0----|--0----0----0---------|
------------3--------|----------------------|-----------------3----|


  Q    Q    Q    Q       Q    Q    H           Q    Q    Q    Q     
----------------------|---------------------|----------------------|
----------------------|---------------------|----------------------|
--0----0----0----0----|--0---------0--------|--0----0----0----0----|
----------------------|-------0-------------|----------------------|


  Q    Q    Q    Q       Q    Q    Q    Q       Q    Q    H         
----------------------|----------------------|---------------------|
----------------------|----------------------|---------------------|
--0----0----0---------|--0----0----0----0----|--0----0-------------|
-----------------3----|----------------------|------------3--------|


  Q    Q    Q    Q       Q    Q    Q    Q       Q    Q    Q    Q     
----------------------|----------------------|----------------------|
----------------------|----------------------|----------------------|
--0----0----0----0----|--0----0----0---------|--0----0----0----0----|
----------------------|-----------------3----|----------------------|


  Q    Q    H           E  E  E  E  E  E  E  E     E  E  E  E  E  E  E  E   
---------------------|--------------------------|--------------------------|
---------------------|--------------------------|--------------------------|
--0---------0--------|--------------------------|--------------------5--5--|
-------0-------------|--0--0--0--0--0--0--0--0--|--0--0--0--0--0--0--------|


  E  E  E  E  E  E  E  E     E  E  E  E  E  E  E  E   
--------------------------|--------------------------|
--------------------------|--------------------------|
--------------------------|--------------5--5--5--5--|
--0--0--0--0--0--0--0--0--|--0--0--0--0--------------|


  E  E  E  E  E  E  E  E     E  E  E  E  E  E  E  E   
--------------------------|--------------------------|
--------------------------|--------------------------|
--------------------------|--------------------5--5--|
--0--0--0--0--0--0--0--0--|--0--0--0--0--0--0--------|


  E  E  E  E  E  E  E  E     E  E  E  E     Q    Q    Q    Q     
--------------------------|--------------|----------------------|
--------------------------|--------------|----------------------|
--------------------------|--------2--2--|----------------------|
--0--0--0--0--0--0--0--0--|--0--0--------|--0---------0---------|


  Q    H.              S S S S S S S S S S S S S S S S  
--------------------|----------------------------------|
--------------------|----------------------------------|
--------------------|----------------------------------|
--0-----------------|--3-5-5-5-5-5-5-5-5-5-5-5-5-5-5-5-|


  S S S S S S S S S S S S S S S S    S S S S S S S S S S S S S S S S  
----------------------------------|----------------------------------|
----------------------------------|----------------------------------|
----------------------------------|----------------------------------|
--3-5-5-5-5-5-5-5-5-5-5-5-5-5-5-5-|--3-5-5-5-5-5-5-5-5-5-5-5-5-5-5-5-|


  E.  E.  E  E.  E.  E     S S S S S S S S S S S S S S S S  
------------------------|----------------------------------|
------------------------|----------------------------------|
--3---3---3-------------|----------------------------------|
-------------3---3---3--|--3-5-5-5-5-5-5-5-5-5-5-5-5-5-5-5-|


  S S S S S S S S S S S S S S S S    S S S S S S S S S S S S S S S S  
----------------------------------|----------------------------------|
----------------------------------|----------------------------------|
----------------------------------|----------------------------------|
--3-5-5-5-5-5-5-5-5-5-5-5-5-5-5-5-|--3-5-5-5-5-5-5-5-5-5-5-5-5-5-5-5-|


  E.  E.  E  E.  E.  E     S S S S S S S S S S S S S S S S  
------------------------|----------------------------------|
------------------------|----------------------------------|
--3---3---3--5---5---5--|----------------------------------|
------------------------|--3-5-5-5-5-5-5-5-5-5-5-5-5-5-5-5-|


  S S S S S S S S S S S S S S S S    S S S S S S S S S S S S S S S S  
----------------------------------|----------------------------------|
----------------------------------|----------------------------------|
----------------------------------|----------------------------------|
--3-5-5-5-5-5-5-5-5-5-5-5-5-5-5-5-|--3-5-5-5-5-5-5-5-5-5-5-5-5-5-5-5-|


  E.  E.  E  E.  E.  E     S S S S S S S S S S S S S S S S  
------------------------|----------------------------------|
------------------------|----------------------------------|
--3---3---3-------------|----------------------------------|
-------------3---3---3--|--3-5-5-5-5-5-5-5-5-5-5-5-5-5-5-5-|


  S S S S S S S S S S S S S S S S    S S S S S S S S S S S S S S S S  
----------------------------------|----------------------------------|
----------------------------------|----------------------------------|
----------------------------------|----------------------------------|
--3-5-5-5-5-5-5-5-5-5-5-5-5-5-5-5-|--3-5-5-5-5-5-5-5-5-5-5-5-5-5-5-5-|


  E.  E.  E  E.  E.  E     S S S S S S S S S S S S S S S S  
------------------------|----------------------------------|
------------------------|----------------------------------|
--3---3---3--5---5---5--|----------------------------------|
------------------------|--5-7-7-7-7-7-7-7-7-7-7-7-7-7-7-7-|


  S S S S S S S S S S S S S S S S    S S S S S S S S S S S S S S S S  
----------------------------------|----------------------------------|
----------------------------------|----------------------------------|
----------------------------------|----------------------------------|
--5-7-7-7-7-7-7-7-7-7-7-7-7-7-7-7-|--5-7-7-7-7-7-7-7-7-7-7-7-7-7-7-7-|


  E.  E.  E  E.  E.  E     S S S S S S S S S S S S S S S S  
------------------------|----------------------------------|
------------------------|----------------------------------|
--5---5---5-------------|----------------------------------|
-------------5---5---5--|--5-7-7-7-7-7-7-7-7-7-7-7-7-7-7-7-|


  S S S S S S S S S S S S S S S S    S S S S S S S S S S S S S S S S  
----------------------------------|----------------------------------|
----------------------------------|----------------------------------|
----------------------------------|----------------------------------|
--5-7-7-7-7-7-7-7-7-7-7-7-7-7-7-7-|--5-7-7-7-7-7-7-7-7-7-7-7-7-7-7-7-|


  E.  E.  E  E.  E.  E     S S S S S S S S S S S S S S S S  
------------------------|----------------------------------|
------------------------|----------------------------------|
--5---5---5--7---7---7--|----------------------------------|
------------------------|--3-5-5-5-5-5-5-5-5-5-5-5-5-5-5-5-|


  S S S S S S S S S S S S S S S S    S S S S S S S S S S S S S S S S  
----------------------------------|----------------------------------|
----------------------------------|----------------------------------|
----------------------------------|----------------------------------|
--3-5-5-5-5-5-5-5-5-5-5-5-5-5-5-5-|--3-5-5-5-5-5-5-5-5-5-5-5-5-5-5-5-|


  E.  E.  E  E.  E.  E     S S S S S S S S S S S S S S S S  
------------------------|----------------------------------|
------------------------|----------------------------------|
--3---3---3-------------|----------------------------------|
-------------3---3---3--|--3-5-5-5-5-5-5-5-5-5-5-5-5-5-5-5-|


  S S S S S S S S S S S S S S S S    S S S S S S S S S S S S S S S S  
----------------------------------|----------------------------------|
----------------------------------|----------------------------------|
----------------------------------|----------------------------------|
--3-5-5-5-5-5-5-5-5-5-5-5-5-5-5-5-|--3-5-5-5-5-5-5-5-5-5-5-5-5-5-5-5-|


  E.  E.  E  E.  E.  E     S S S S S S S S S S S S S S S S  
------------------------|----------------------------------|
------------------------|----------------------------------|
--3---3---3--5---5---5--|----------------------------------|
------------------------|--5-7-7-7-7-7-7-7-7-7-7-7-7-7-7-7-|


  S S S S S S S S S S S S S S S S    S S S S S S S S S S S S S S S S  
----------------------------------|----------------------------------|
----------------------------------|----------------------------------|
----------------------------------|----------------------------------|
--5-7-7-7-7-7-7-7-7-7-7-7-7-7-7-7-|--5-7-7-7-7-7-7-7-7-7-7-7-7-7-7-7-|


  E.  E.  E  E.  E.  E     S S S S S S S S S S S S S S S S  
------------------------|----------------------------------|
------------------------|----------------------------------|
--5---5---5-------------|----------------------------------|
-------------5---5---5--|--5-7-7-7-7-7-7-7-7-7-7-7-7-7-7-7-|


  S S S S S S S S S S S S S S S S    S S S S S S S S S S S S S S S S  
----------------------------------|----------------------------------|
----------------------------------|----------------------------------|
----------------------------------|----------------------------------|
--5-7-7-7-7-7-7-7-7-7-7-7-7-7-7-7-|--5-7-7-7-7-7-7-7-7-7-7-7-7-7-7-7-|


  E.  E.  E  E.  E.  E     E  S S S S S S S S S S S S S S  
------------------------|---------------------------------|
------------------------|---------------------------------|
--5---5---5--7---7---7--|--5--5-5-5-5-5-5-5-5-5-5-5-5-5-5-|
------------------------|---------------------------------|


  E  S S S S S S S S S S S S S S    E  S S S S S S S S S S S S S S  
---------------------------------|---------------------------------|
---------------------------------|---------------------------------|
--3--3-3-3-3-3-3-3-3-3-3-3-3-3-3-|---------------------------------|
---------------------------------|--1--1-1-1-1-1-1-1-1-1-1-1-1-1-1-|


  E  S S S S S S S S S S S S S S    E  S S S S S S S S S S S S S S  
---------------------------------|---------------------------------|
---------------------------------|---------------------------------|
---------------------------------|--5--5-5-5-5-5-5-5-5-5-5-5-5-5-5-|
--3--3-3-3-3-3-3-3-3-3-3-3-3-3-3-|---------------------------------|


  E  S S S S S S S S S S S S S S    E  S S S S S S S S S S S S S S  
---------------------------------|---------------------------------|
---------------------------------|---------------------------------|
--3--3-3-3-3-3-3-3-3-3-3-3-3-3-3-|---------------------------------|
---------------------------------|--1--1-1-1-1-1-1-1-1-1-1-1-1-1-1-|


  E  S S S S S S S S S S S S S S    E  S S S S S S S S S S S S S S  
---------------------------------|---------------------------------|
---------------------------------|---------------------------------|
---------------------------------|--5--5-5-5-5-5-5-5-5-5-5-5-5-5-5-|
--3--3-3-3-3-3-3-3-3-3-3-3-3-3-3-|---------------------------------|


  E  S S S S S S S S S S S S S S    E  S S S S S S S S S S S S S S  
---------------------------------|---------------------------------|
---------------------------------|---------------------------------|
--3--3-3-3-3-3-3-3-3-3-3-3-3-3-3-|---------------------------------|
---------------------------------|--1--1-1-1-1-1-1-1-1-1-1-1-1-1-1-|


  E  S S S S S S S S S S S S S S    E  S S S S S S S S S S S S S S  
---------------------------------|---------------------------------|
---------------------------------|---------------------------------|
---------------------------------|--5--5-5-5-5-5-5-5-5-5-5-5-5-5-5-|
--3--3-3-3-3-3-3-3-3-3-3-3-3-3-3-|---------------------------------|


  E  S S S S S S S S S S S S S S    E  S S S S S S S S S S S S S S  
---------------------------------|---------------------------------|
---------------------------------|---------------------------------|
--3--3-3-3-3-3-3-3-3-3-3-3-3-3-3-|---------------------------------|
---------------------------------|--1--1-1-1-1-1-1-1-1-1-1-1-1-1-1-|


  E  S S S S S S S S S S S S S S    Q    H.              W                 
---------------------------------|--------------------|-------------------|
---------------------------------|--------------------|-------------------|
---------------------------------|--5-----------------|--3----------------|
--3--3-3-3-3-3-3-3-3-3-3-3-3-3-3-|--------------------|-------------------|


                                           |----3----|               
  Q    H.              W                   Q    Q    Q    E  Q.      
--------------------|-------------------|---------------------------|
--------------------|-------------------|---------------------------|
--------------------|-------------------|--5----5----5----L---------|
--1-----------------|--3----------------|---------------------------|


  |----3----|                 |----3----|               
  Q    Q    Q    E  Q.        Q    Q    Q    E  Q.      
---------------------------|---------------------------|
---------------------------|---------------------------|
--3----3----3----L---------|---------------------------|
---------------------------|--1----1----1----L---------|


  |----3----|                                                               
  Q    Q    Q    E  E  E  E     Q    Q    Q    Q       Q    Q    Q    Q     
-----------------------------|----------------------|----------------------|
-----------------------------|------------3---------|------------2---------|
-----------------------2-----|--5----5---------5----|--3----3---------3----|
--3----3----3----L--3-----3--|----------------------|----------------------|


  Q    Q    Q    Q       Q     Q    Q    Q     
----------------------|-----------------------|
----------------------|-----------------------|
------------0---------|-------------2---------|
--1----1---------1----|--3~----3---------3----|


  E  S S S S S S S S S S S S S S    E  S S S S S S S S S S S S S S  
---------------------------------|---------------------------------|
---------------------------------|---------------------------------|
--5--5-5-5-5-5-5-5-5-5-5-5-5-5-5-|--3--3-3-3-3-3-3-3-3-3-3-3-3-3-3-|
---------------------------------|---------------------------------|


  E  S S S S S S S S S S S S S S    E  S S S S S S S S S S S S S S  
---------------------------------|---------------------------------|
---------------------------------|---------------------------------|
---------------------------------|---------------------------------|
--1--1-1-1-1-1-1-1-1-1-1-1-1-1-1-|--3--3-3-3-3-3-3-3-3-3-3-3-3-3-3-|


  E  S S S S S S S S S S S S S S    E  S S S S S S S S S S S S S S  
---------------------------------|---------------------------------|
---------------------------------|---------------------------------|
--5--5-5-5-5-5-5-5-5-5-5-5-5-5-5-|--3--3-3-3-3-3-3-3-3-3-3-3-3-3-3-|
---------------------------------|---------------------------------|


  E  S S S S S S S S S S S S S S    E  S S S S S S S S S S S S S S  
---------------------------------|---------------------------------|
---------------------------------|---------------------------------|
---------------------------------|---------------------------------|
--1--1-1-1-1-1-1-1-1-1-1-1-1-1-1-|--3--3-3-3-3-3-3-3-3-3-3-3-3-3-3-|


  E  S S S S S S S S S S S S S S    E  S S S S S S S S S S S S S S  
---------------------------------|---------------------------------|
---------------------------------|---------------------------------|
--5--5-5-5-5-5-5-5-5-5-5-5-5-5-5-|--3--3-3-3-3-3-3-3-3-3-3-3-3-3-3-|
---------------------------------|---------------------------------|


  E  S S S S S S S S S S S S S S    E  S S S S S S S S S S S S S S  
---------------------------------|---------------------------------|
---------------------------------|---------------------------------|
---------------------------------|---------------------------------|
--1--1-1-1-1-1-1-1-1-1-1-1-1-1-1-|--3--3-3-3-3-3-3-3-3-3-3-3-3-3-3-|


  S S S S S S S S S S S S S S S S    S S S S S S S S S S S S S S S S  
----------------------------------|----------------------------------|
----------------------------------|----------------------------------|
----------------------------------|--3-3-3-3-3-3-3-3-----------------|
--5-5-5-5-5-5-5-5-3-3-3-3-3-3-3-3-|------------------3-3-3-3-3-3-3-3-|


  S S S S S S S S S S S S S S S S    S S S S S S S S S S S S S S S S  
----------------------------------|----------------------------------|
----------------------------------|----------------------------------|
----------------------------------|--3-3-3-3-3-3-3-3-----------------|
--5-5-5-5-5-5-5-5-3-3-3-3-3-3-3-3-|------------------3-3-3-3-3-3-3-3-|


  S S S S S S S S S S S S S S S S    S S S S S S S S S S S S S S S S  
----------------------------------|----------------------------------|
----------------------------------|----------------------------------|
----------------------------------|--3-3-3-3-3-3-3-3-----------------|
--5-5-5-5-5-5-5-5-3-3-3-3-3-3-3-3-|------------------3-3-3-3-3-3-3-3-|


  S S S S S S S S S S S S S S S S    S S S S S S S S S S S S S S S S  
----------------------------------|----------------------------------|
----------------------------------|----------------------------------|
----------------------------------|----------------------------------|
--5-5-5-5-5-5-5-5-5-5-5-5-5-5-5-5-|--5-5-5-5-5-5-5-5-3-3-3-3-3-3-3-3-|


  |----3----|    |----3----|       |----3----|    |----3----|     
  Q    Q    Q    Q    Q    Q       Q    Q    Q    Q    Q    Q     
------------0--------------2----|------------0--------------2----|
-------2--------------4---------|-------2--------------4---------|
--3--------------5--------------|--3--------------5--------------|
--------------------------------|--------------------------------|


  |----3----|    |----3----|       |--3-|        |--3-|         
  Q    Q    Q    Q    Q    Q       Q    H        Q    H         
------------0--------------2----|------------------------------|
-------2--------------4---------|--2-------------2-------------|
--3--------------5--------------|------------------------------|
--------------------------------|------------------------------|


  |--3-|           |--3-|        3                                 
  Q    H           Q    H        H.              W                 
----------------|-----------------------------|-------------------|
--2-------------|-----------------------------|-------------------|
----------------|--2----3--------L------------|--L----------------|
----------------|-----------------------------|-------------------|


                      -------------   -------------   ------------- 
  W                                                                 
-------------------|---------------|---------------|---------------|
-------------------|---------------|---------------|---------------|
--L----------------|---------------|---------------|---------------|
-------------------|---------------|---------------|---------------|


  -------------   -------------   -------------   -------------   ------------- 
---------------|---------------|---------------|---------------|---------------|
---------------|---------------|---------------|---------------|---------------|
---------------|---------------|---------------|---------------|---------------|
---------------|---------------|---------------|---------------|---------------|


  -------------   -------------   -------------   -------------   ------------- 
---------------|---------------|---------------|---------------|---------------|
---------------|---------------|---------------|---------------|---------------|
---------------|---------------|---------------|---------------|---------------|
---------------|---------------|---------------|---------------|---------------|


  Q    Q    Q    Q       E  S S S S S S S S S S S S S S  
----------------------|---------------------------------|
----------------------|---------------------------------|
--3-------------------|---------------------------------|
-------5----0----5----|--5--5-5-5-5-5-5-5-5-5-5-5-5-5-5-|


  S S S S S S S S S S S S S S S S    E  S S S S S S E  S S S S S S  
----------------------------------|--------------------------------|
----------------------------------|--------------------------------|
----------------------------------|--3--3-3-3-3-3-3----------------|
--5-5-5-5-5-5-5-5-5-5-5-5-5-5-5-5-|-----------------3--3-3-3-3-3-3-|


  E  S S E  S S E  S S E  S S    E  S S S S S S E.  E.  E   
------------------------------|----------------------------|
------------------------------|-----------------5---3---2--|
--3--3-3----------------------|--3--3-3-3-3-3-3------------|
---------5--5-5-0--0-0-5--5-5-|----------------------------|


  E  S S S S S S S S S S S S S S    E  S S S S S S E  S S E  S S  
---------------------------------|-------------------------------|
---------------------------------|-------------------------------|
--0--0-0-0-0-0-0-0-0-0-0-0-0-0-0-|--5--5-5-5-5-5-5-2--2-2-3--3-3-|
---------------------------------|-------------------------------|


  E  S S S S S S S S S S S S S S    E  S S S S S S S S S S S S S S  
---------------------------------|---------------------------------|
---------------------------------|---------------------------------|
---------------------------------|--2--2-2-2-2-2-2-2-2-2-2-2-2-2-2-|
--5--5-5-5-5-5-5-5-5-5-5-5-5-5-5-|---------------------------------|


  S S S S S S S S S S S S S S S S    E  S S S S S S E  S S S S S S  
----------------------------------|--------------------------------|
----------------------------------|--0--0-0-0-0-0-0----------------|
--2-2-2-2-2-2-2-2-2-2-2-2-2-2-2-2-|-----------------0--0-0-0-0-0-0-|
----------------------------------|--------------------------------|


  E  S S E  S S E  S S E  S S    E  S S S S S S E.  E.  E   
------------------------------|-----------------2---0------|
--0--0-0----------------------|--0--0-0-0-0-0-0---------4--|
---------2--2-2--------2--2-2-|----------------------------|
----------------2--2-2--------|----------------------------|


  E  S S S S S S S S S S S S S S    E  S S S S S S E  S S E  S S  
---------------------------------|-------------------------------|
---------------------------------|--2--2-2-2-2-2-2--------0--0-0-|
--2--2-2-2-2-2-2-2-2-2-2-2-2-2-2-|-----------------4--4-4--------|
---------------------------------|-------------------------------|


  E  S S S S S S S S S S S S S S    E  S S S S S S S S S S S S S S  
---------------------------------|---------------------------------|
---------------------------------|---------------------------------|
--2--2-2-2-2-2-2-2-2-2-2-2-2-2-2-|--4--4-4-4-4-4-4-4-4-4-4-4-4-4-4-|
---------------------------------|---------------------------------|


  S S S S S S S S S S S S S S S S    E  S S S S S S E  S S S S S S  
----------------------------------|--------------------------------|
----------------------------------|--2--2-2-2-2-2-2----------------|
--4-4-4-4-4-4-4-4-4-4-4-4-4-4-4-4-|-----------------2--2-2-2-2-2-2-|
----------------------------------|--------------------------------|


  E  S S E  S S E  S S E  S S    E  S S S S S S E.  E.  E   
------------------------------|-----------------4---2---1--|
--2--2-2----------------------|--2--2-2-2-2-2-2------------|
---------4--4-4--------4--4-4-|----------------------------|
----------------4--4-4--------|----------------------------|


                                    |----3----|    |----3----|     
  E  S S S S S S S S S S S S S S    Q    Q    Q    Q    Q    Q     
---------------------------------|--------------------------------|
---------------------------------|--4----4----4-------------------|
--4--4-4-4-4-4-4-4-4-4-4-4-4-4-4-|-----------------6----7----6----|
---------------------------------|--------------------------------|


  |----3----|    |----3----|       |----3----|    |----3----|     
  Q    Q    Q    Q    Q    Q       Q    Q    Q    Q    Q    Q     
--------------------------------|--------------------------------|
--4----4----4-------------------|--4----4----4-------------------|
-----------------6----7----6----|-----------------6----7----6----|
--------------------------------|--------------------------------|


  W                   W                   W                      
-------------------|-------------------|-------------------|----|
-------------------|-------------------|-------------------|----|
--L----------------|--L----------------|--L----------------|----|
-------------------|-------------------|-------------------|----|


  E  S S S S S S S S S S S S S S    S S S S S S S S S S S S S S S S  
---------------------------------|----------------------------------|
---------------------------------|----------------------------------|
--4--4-4-4-4-4-4-4-4-4-4-4-4-4-4-|--4-4-4-4-4-4-4-4-4-4-4-4-4-4-4-4-|
---------------------------------|----------------------------------|


  E  S S S S S S E  S S S S S S    E  S S E  S S E  S S E  S S  
--------------------------------|------------------------------|
--2--2-2-2-2-2-2----------------|--2--2-2----------------------|
-----------------2--2-2-2-2-2-2-|---------4--4-4--------4--4-4-|
--------------------------------|----------------4--4-4--------|


  E  S S S S S S E.  E.  E     E  S S S S S S S S S S S S S S  
-----------------4---2---1--|---------------------------------|
--2--2-2-2-2-2-2------------|---------------------------------|
----------------------------|--4--4-4-4-4-4-4-4-4-4-4-4-4-4-4-|
----------------------------|---------------------------------|


  E  S S S S S S S S S S S S S S    Q    Q    Q    Q     
---------------------------------|----------------------|
--4--4-4-4-4-4-4-----------------|----------------------|
-----------------6-6-6-7-7-7-6-6-|--4---------4---------|
---------------------------------|----------------------|


  Q    Q    S S S S S S S S    W                   S S S S S S S S  
----------------------------|-------------------|------------------|
------------6-4-----4-------|-------------------|--6-4-----4-------|
--4-------------7-6---7-6-4-|--5----------------|------7-6---7-6---|
----------------------------|-------------------|----------------7-|


                        |----3----|                |----3----|              
  Q     H.              Q    Q    Q    H           Q    Q    Q    H         
---------------------|--------------------------|--------------------------|
---------------------|--------------------------|--------------------------|
--4S----x------------|--4----4----4-------------|--4----4----4-------------|
---------------------|--------------------------|--------------------------|


  |--3--|  |--3--|  |--3--|  |--3--|   
  E  E  E  E  E  E  E  E  E  E  E  E   
--------------------------------------|
--------------------------------------|
--4--4--4--4--5--5--5--5--6--6--6--6--|
--------------------------------------|


  |--3--|  |--3--|                           
  E  E  E  E  E  E  S S S S S S  T  T  T  T  
--------------------------------------------|
--------------------------------------------|
--7--7--7--7--8--8--8-8-9-9-9-9-10-10-10-10-|
--------------------------------------------|


   T  T  T  T  T  T  T  T  T  T  T  T  X  X  X  X  X  X  X  X  X  X  X  X  X  X 
--------------------------------------------------------------------------------
--------------------------------------------------------------------------------
--11-11-11-11-12-12-12-12-13-13-13-13-14-14-14-14-15-15-15-15-16-16-16-16-17-17-
--------------------------------------------------------------------------------


                                                   PM        
   T  T  T  T  T  T  T  T  T  T  T  T  T  T  T  T  H         
------------------------------------------------------------|
--------------20-20-20-20-21-21-21-21-22-22-22-22-23--------|
--24-24-24-24-----------------------------------------------|
------------------------------------------------------------|


  W                   W                   W                   H.            
--0----------------|--L----------------|--L----------------|--L------------|
--0----------------|--L----------------|--L----------------|--L------------|
--0----------------|--L----------------|--L----------------|--L------------|
--0----------------|--L----------------|--L----------------|--L------------|


  H.              H.              H.              H.                            
--L------------|--L------------|--L------------|--L------------|---------------|
--L------------|--L------------|--L------------|--L------------|---------------|
--L------------|--L------------|--L------------|--L------------|---------------|
--L------------|--L------------|--L------------|--L------------|---------------|



            
            
Suggest correction
Creating personal tab
Creating personal tab
You can edit any tab online and save it as your Personal.

You can edit, replace or remove any tab part or add personal notes – all changes will be seen only by you.

Personal tabs can be accessed anytime from any device, even offline.
Learn more »
Give kudos to tab author, rate the tab!
1 2 3 4 5
comments
print report bad tab
guest
You may want to rate the tab now too:
select rating
Wanna post a correction for this tab? Suggest correction