Oops, an error
Loading. Please wait.

Silent Lucidity Tab

version 1
version 1
305,879 views 465 this week
13 commentsread comments
1 2 3 4 5
x 98
add to favorites
launch autoscroll
font size
0
reset
how to read this tab
guitar tuner
backing track
0:00
0:00
×
Best way to learn
"Silent Lucidity"
Autoscroll
slow
fast
+/-
esc
set tempo
stop
Silent Lucidity - Queensryche
Tabbed by Mike Bremford


E|-----7-----7-----5-----5-----5---|-----7-----7-----5-----5-----5---|
B|-------0-----0-----0-----0-------|-------0-----0-----0-----0-------|
G|-0-------0-----0-----0-----0-----|-0-------0-----0-----0-----0-----|
D|---------------------------------|---------------------------------|
A|---------------------------------|---------------------------------|
E|---------------------------------|---------------------------------|


E|-----2-----2---------------------|-----2-----2---------------------|
B|-------0-----0---3-----3-----3---|-------0-----0---3-----3-----3---|
G|-------------------0-----0-------|-------------------0-----0-------|
D|-2-------2-----2-----2-----2-----|-2-------2-----2-----2-----2-----|
A|---------------------------------|---------------------------------|
E|---------------------------------|---------------------------------|


E|-----7-----7-----5-----5-----5---|-----7-----7-----5-----5-----5---|
B|-------0-----0-----0-----0-------|-------0-----0-----0-----0-------|
G|-0-------0-----0-----0-----0-----|-0-------0-----0-----0-----0-----|
D|---------------------------------|---------------------------------|
A|---------------------------------|---------------------------------|
E|---------------------------------|---------------------------------|


E|-----2-----2---------------------|-----2-----2---------------------|
B|-------0-----0---3-----3-----3---|-------0-----0---3-----3-----3---|
G|-------------------0-----0-------|-------------------0-----0-------|
D|-2-------2-----2-----2-----2-----|-2-------2-----2-----2-----2-----|
A|---------------------------------|---------------------------------|
E|---------------------------------|---------------------------------|


e|-----0-----0---------------------|-----0-----0---------------------|
B|-----------------3-----3-----3---|-----------------3-----3-----3---|
G|-------0-----0-----0-----0-------|-------0-----0-----0-----0-------|
D|---------------------------------|---------------------------------|
A|-3-------3-----3-----3-----3-----|-3-------3-----3-----3-----3-----|
E|---------------------------------|---------------------------------|


e|-----0-----0---------------------|-----0-----0---------------------|
B|-----------------3-----3-----3---|-----------------3-----3-----3---|
G|-------0-----0-----0-----0-------|-------0-----0-----0-----0-------|
D|---------------------------------|---------------------------------|
A|-0-------0-----0-----0-----0-----|-0-------0-----0-----0-----0-----|
E|---------------------------------|---------------------------------|


e|-----0-----0---------------------|-----0-----0---------------------|
B|-----------------3-----3-----3---|-----------------3-----3-----3---|
G|-------0-----0-----0-----0-------|-------0-----0-----0-----0-------|
D|---------------------------------|---------------------------------|
A|-3-------3-----3-----3-----3-----|-3-------3-----3-----3-----3-----|
E|---------------------------------|---------------------------------|


e|-----0-----0---------------------|-----0-----0---------------------|
B|-----------------3-----3-----3---|-----------------3-----3-----3---|
G|-------0-----0-----0-----0-------|-------0-----0-----0-----0-------|
D|---------------------------------|---------------------------------|
A|-0-------0-----0-----0-----0-----|-0-------0-----0-----0-----0-----|
E|---------------------------------|---------------------------------|


e|----------|---------------------------------|---------------------------------|
B|----------|-----0-----0---------------------|-----0-----0---------------------|
G|--------0-|-------0-----0---2-----2-----2---|-------0-----0---2-----2-----2---|
D|-0--0h2---|-------------------0-----0-------|-------------------0-----0-------|
A|----------|---------------------------------|---------------------------------|
E|----------|-3-------3-----3-----3-----3-----|-3-------3-----3-----3-----3-----|

 etc... Goes on and on.
Suggest correction
comments
print report bad tab
13 comments total. Showing first comments.
+3 reply
rnrober 10 Sep 23, 2002 08:00 PM

measueres 1 & 5 should read

E+---7---7---5---5---5-----------------
B+----0---0---0---0--------------------
G+-------------------------------------
D+-5----5---5---5---5---5--------------
A+-------------------------------------
E+-------------------------------------

Measures 2 & 4 should read

E+---7---7---5---5---5-----------------
B+----0---0---0---0--------------------
G+-------------------------------------
D+------5---5---5---0---5\2------------
A+-------------------------------------
E+-------------------------------------


Measures 3&7 Are perfect and the only change necessary for measures 4 & 8 are at the very end on line D after B 3 fret is 2/5. try it i think you'll be pleasantly surprised.

0 reply
Eric 666 130 Feb 15, 2006 12:02 PM

the solo is a bit off

0 reply
shar'sgitar 10 Mar 11, 2006 06:31 PM

WOW!!!!

YOu said that this was your first time doing a tab....well then you are awesome. I've been looking for a good tab somewhere and you are the best!!!!
your welcome....Shar'sgitar =0

guest
You may want to rate the tab now too:
select rating
Wanna post a correction for this tab? Suggest correction