Oops, an error
Loading. Please wait.

Rock The 40 Oz bass

version 2
version 2

Whole song

830 views 1 this week
no commentswrite comment
1 2 3 4 5
2 more votes to show rating
add to favorites
×
Save as Personal and add changes to this tab that will be seen only by you. Learn more ›
×
You can save this tab as Personal to edit and correct it or add notes. All changes will be seen only by you. Learn more »
launch autoscroll
font size
0
reset
guitar tuner
edit
Autoscroll
slow
fast
+/-
esc
set tempo
stop
I'd like to say this is pretty Accurate but it's how I like to play along with this 
think it sounds pretty good this way anyway. I listened the best I could to the bassline 
the song which was pretty hard to tell exactly how he plays it but I tried my best...

Listen closey and follow along with the rythem guitar The number of strikes may not be 
on the tab so just listen for it. I reccomend using a pick for this song.


Intro
00:03
E--------------------------------|
A--5~--7-7-7-7-7-7-7-7-7-7-7-7---|
D--------------------------------|
G--------------------------------|

Intro/Verse 1
00:07
E--------------------------3-3-3-3-3-3-3-3-3-3-3-3-|
A-7-7-7-7-7--3-3-3-3-3-3---------------------------|
D--------------------------------------------------|
G--------------------------------------------------|

Intro/Verse 2
E--------------------------3-3-3-3-3-3----------|
A-7-7-7-7-7-7--3-3-3-3-3-3----------------------|
D--------------------------------------5-4-2-0--|
G-----------------------------------------------|


Main Verse 1
00:14
E----------------------------------3-3-3-3-3-3-3-3-3-3-3-3-3-3-3-3-|
A-7-7-7-7-7-7-7-7--3-3-3-3-3-3-3-3---------------------------------|
D------------------------------------------------------------------|
G------------------------------------------------------------------|

Main Verse 2
E----------------------------------3-3-3-3-3-3-3-3----------|
A-7-7-7-7-7-7-7-7--3-3-3-3-3-3-3-3--------------------------|
D--------------------------------------------------5-3-2-0--|
G-----------------------------------------------------------|


Main Verse 1
E----------------------------------3-3-3-3-3-3-3-3-3-3-3-3-3-3-3-3-|
A-7-7-7-7-7-7-7-7--3-3-3-3-3-3-3-3---------------------------------|
D------------------------------------------------------------------|
G------------------------------------------------------------------|

Main Verse Outro
E-------------------------------------------------|
A-7-7-7-7-7-7-7-7--3-3-3-3-3-3-3-3--5-5--5-3-2-0--|
D-------------------------------------------------|
G-------------------------------------------------|

Chorus
00:29
E--3-3-3-3-3---------------------------------|
A------------5-5-5-5-5--2-2-2-2-2-2-2-2-2-2--|
D--------------------------------------------|
G--------------------------------------------|

E--3-3-3-3-3---------------------------------|
A------------3-3-3-3-3--2-2-2-2-2-2-2-2-2-2--|
D--------------------------------------------|
G--------------------------------------------|

E--------------------------------------------------|
A--10-10-10-10-10--5-5-5-5-5--2-2-2-2-2-2-2-2-2-2--|
D--------------------------------------------------|
G--------------------------------------------------|

E--3-3-3-3-3---------------------------------|
A------------3-3-3-3-3--2-2-2-2-2-2-2-2-2-2--|
D--------------------------------------------|
G--------------------------------------------|

Chorus Outro
00:43
E-----------------------------------------------------------------------------|
A--3-3-3-3-3-3-3-3--2-2-2-2-2-2-2-2--3-3-3-3-3-3-3-3--2-2-2-2-2-2-2-2---------|
D---------------------------------------------------------------------5-4-3-0-|
G-----------------------------------------------------------------------------|

Main Verse 1
00:48
E----------------------------------3-3-3-3-3-3-3-3-3-3-3-3-3-3-3-3-|
A-7-7-7-7-7-7-7-7--3-3-3-3-3-3-3-3---------------------------------|
D------------------------------------------------------------------|
G------------------------------------------------------------------|

Main Verse 2
E----------------------------------3-3-3-3-3-3-3-3----------|
A-7-7-7-7-7-7-7-7--3-3-3-3-3-3-3-3--------------------------|
D--------------------------------------------------5-3-2-0--|
G-----------------------------------------------------------|


Main Verse 1
E----------------------------------3-3-3-3-3-3-3-3-3-3-3-3-3-3-3-3-|
A-7-7-7-7-7-7-7-7--3-3-3-3-3-3-3-3---------------------------------|
D------------------------------------------------------------------|
G------------------------------------------------------------------|

Main Verse outro
E-------------------------------------------------|
A-7-7-7-7-7-7-7-7--3-3-3-3-3-3-3-3--5-5--5-3-2-0--|
D-------------------------------------------------|
G-------------------------------------------------|

Chorus
01:03

E--3-3-3-3-3---------------------------------|
A------------5-5-5-5-5--2-2-2-2-2-2-2-2-2-2--|
D--------------------------------------------|
G--------------------------------------------|

E--3-3-3-3-3---------------------------------|
A------------3-3-3-3-3--2-2-2-2-2-2-2-2-2-2--|
D--------------------------------------------|
G--------------------------------------------|

E--------------------------------------------------|
A--10-10-10-10-10--5-5-5-5-5--2-2-2-2-2-2-2-2-2-2--|
D--------------------------------------------------|
G--------------------------------------------------|

E--3-3-3-3-3---------------------------------|
A------------3-3-3-3-3--2-2-2-2-2-2-2-2-2-2--|
D--------------------------------------------|
G--------------------------------------------|

Chorus Outro
01:16
E-----------------------------------------------------------------------------|
A--3-3-3-3-3-3-3-3--2-2-2-2-2-2-2-2--3-3-3-3-3-3-3-3--2-2-2-2-2-2-2-2---------|
D---------------------------------------------------------------------5-4-3-0-|
G-----------------------------------------------------------------------------|

Main Verse 1
01:22
E----------------------------------3-3-3-3-3-3-3-3-3-3-3-3-3-3-3-3-|
A-7-7-7-7-7-7-7-7--3-3-3-3-3-3-3-3---------------------------------|
D------------------------------------------------------------------|
G------------------------------------------------------------------|

Main Verse 2
E----------------------------------3-3-3-3-3-3-3-3----------|
A-7-7-7-7-7-7-7-7--3-3-3-3-3-3-3-3--------------------------|
D--------------------------------------------------5-3-2-0--|
G-----------------------------------------------------------|


Main Verse 1
E----------------------------------3-3-3-3-3-3-3-3-3-3-3-3-3-3-3-3-|
A-7-7-7-7-7-7-7-7--3-3-3-3-3-3-3-3---------------------------------|
D------------------------------------------------------------------|
G------------------------------------------------------------------|

Main Verse Outro
E-------------------------------------------------|
A-7-7-7-7-7-7-7-7--3-3-3-3-3-3-3-3--5-5--5-3-2-0--|
D-------------------------------------------------|
G-------------------------------------------------|

Chorus
01:37
E--3-3-3-3-3---------------------------------|
A------------5-5-5-5-5--2-2-2-2-2-2-2-2-2-2--|
D--------------------------------------------|
G--------------------------------------------|

E--3-3-3-3-3---------------------------------|
A------------3-3-3-3-3--2-2-2-2-2-2-2-2-2-2--|
D--------------------------------------------|
G--------------------------------------------|

E--------------------------------------------------|
A--10-10-10-10-10--5-5-5-5-5--2-2-2-2-2-2-2-2-2-2--|
D--------------------------------------------------|
G--------------------------------------------------|

E--3-3-3-3-3---------------------------------|
A------------3-3-3-3-3--2-2-2-2-2-2-2-2-2-2--|
D--------------------------------------------|
G--------------------------------------------|

Chorus Outro
01:49
E---------------------------------------------------------------------|
A--3-3-3-3-3-3-3-3--2-2-2-2-2-2-2-2--3-3-3-3-3-3-3-3--2-2-2-2-2-2-2-2-|
D---------------------------------------------------------------------|
G---------------------------------------------------------------------|

Chorus Again

Chorus
01:33
E--3-3-3-3-3---------------------------------|
A------------5-5-5-5-5--2-2-2-2-2-2-2-2-2-2--|
D--------------------------------------------|
G--------------------------------------------|

E--3-3-3-3-3---------------------------------|
A------------3-3-3-3-3--2-2-2-2-2-2-2-2-2-2--|
D--------------------------------------------|
G--------------------------------------------|

E--------------------------------------------------|
A--10-10-10-10-10--5-5-5-5-5--2-2-2-2-2-2-2-2-2-2--|
D--------------------------------------------------|
G--------------------------------------------------|

E--3-3-3-3-3---------------------------------|
A------------3-3-3-3-3--2-2-2-2-2-2-2-2-2-2--|
D--------------------------------------------|
G--------------------------------------------|

Chorus Outro
02:11
E---------------------------------------------------------------------|
A--3-3-3-3-3-3-3-3--2-2-2-2-2-2-2-2--3-3-3-3-3-3-3-3--2-2-2-2-2-2-2-2-|
D---------------------------------------------------------------------|
G---------------------------------------------------------------------|

Outro
02:16
E------------------------------|
A-2-2-2-2-2-2-33-55------------|   X5
D------------------------------|
G------------------------------|


E--3~--3------------------------|
A-------------------------------|
D-------------------------------|
G-------------------------------|

            
            
Suggest correction
Creating personal tab
Creating personal tab
You can edit any tab online and save it as your Personal.

You can edit, replace or remove any tab part or add personal notes – all changes will be seen only by you.

Personal tabs can be accessed anytime from any device, even offline.
Learn more »
Give kudos to tab author, rate the tab!
1 2 3 4 5
comments
print report bad tab
guest
You may want to rate the tab now too:
select rating
Wanna post a correction for this tab? Suggest correction