Oops, an error
Loading. Please wait.

White Punks On Dope bass

1,528 views 3 this week
no commentswrite comment
1 2 3 4 5
3 more votes to show rating
add to favorites
×
Save as Personal and add changes to this tab that will be seen only by you. Learn more ›
×
You can save this tab as Personal to edit and correct it or add notes. All changes will be seen only by you. Learn more »
launch autoscroll
font size
0
reset
guitar tuner
edit
Autoscroll
slow
fast
+/-
esc
set tempo
stop
Author
Difficulty
Artist:Motley Crue
Song:White Punks On Dope (Tubes cover)
Album:New Tattoo
Bassist:Nikki Sixx
Tabber:Dev Fuld

I recieved a request for this song, and I personally love this song. The tab is a little 
but it should be all correct. Ya gotta listen carefully for some stuff.

Key:
* = Let it ring
/ = Slide up
x = Times a number

Intro
G:-----|R|-----|R|-----|R|-----|
D:-----|E|-----|E|-----|E|-----|
A:-----|S|-----|S|-----|S|-----|
E:55555|T|55555|T|55555|T|55555|

G:----------------------------------------------------------|
D:----------------------------------------------------------|
A:----------------------------------------------------------|
E:5-55-55-55-55-55-55-55-55-55-55-55-55-55-55-55-55-55-55-55|

G:------------------|----------------------------------|
D:------------------|----------------------------------|
A:--------5*--/15*--|---------2-5-2-4-----------2-5-2-4|
E:1-1-1-1-----------|0--0-3-5---------0--0--3-5--------|

G:-----------------|
D:------------2-2/5|
A:0*--000-333------|
E:-----------------|

Verse
G:-----------------------------------|---------------------------|
D:-----------------------------------|---4-5-6-----5-6-7---------|
A:5-55-555-6-66-666-8-88-888-8-88-888|5--------6-6---------------|
E:-----------------------------------|-------------------1x18-1-1|

G:-----------------------------------|---------------------------|
D:-----------------------------------|---4-5-6-----5-6-7---------|
A:5-55-555-6-66-666-8-88-888-8-88-888|5--------6-6---------------|
E:-----------------------------------|-------------------1x18-1-1|

Chorus
G:----------------------------------------------------------|
D:----------------------------------------------------------|
A:----------------------------------------------------------|
E:5-55-55-55-55-55-55-55-55-55-55-55-55-55-55-55-55-55-55-55|

G:------------------|-------------------------|
D:------------------|-------------------------|
A:--------5*--/15*--|-------------------------|
E:1-1-1-1-----------|5-55-55-55-5-1-11-11-11-1|

G:-----------------------|----------------------------------|
D:-----------------------|----------------------------------|
A:5-55-55-55-5-3-33-33-33|---------2-5-2-4-----------2-5-2-4|
E:-----------------------|0--0-3-5---------0--0--3-5--------|

G:-----------------|
D:------------2-2/5|
A:0*--000-333------|
E:-----------------|

Second Verse
G:-----------------------------------|---------------------------|
D:-----------------------------------|---4-5-6-----5-6-7---------|
A:5-55-555-6-66-666-8-88-888-8-88-888|5--------6-6---------------|
E:-----------------------------------|-------------------1x18-1-1|

Second Chorus
G:----------------------------------------------------------|
D:----------------------------------------------------------|
A:----------------------------------------------------------|
E:5-55-55-55-55-55-55-55-55-55-55-55-55-55-55-55-55-55-55-55|

G:------------------|-------------------------|
D:------------------|-------------------------|
A:--------5*--/15*--|-------------------------|
E:1-1-1-1-----------|5-55-55-55-5-1-11-11-11-1|

G:-----------------------|-------------------------|
D:-----------------------|-------------------------|
A:5-55-55-55-5-3-33-33-33|-------------------------|
E:-----------------------|5-55-55-55-5-1-11-11-11-1|

G:-----------------------|
D:-----------------------|
A:5-55-55-55-5-3-33-33-33|
E:-----------------------|

Bridge
G:----|R|-----|R|-----|R|-----|R|-------------|
D:----|E|-----|E|-----|E|-----|E|--------2-2/5|
A:----|S|-----|S|-----|S|-----|S|000-333------|
E:0000|T|00000|T|00000|T|00000|T|-------------|

Third Verse
G:-----|R|-----|R|-----------------|
D:-----|E|-----|E|-----------------|
A:5*--5|S|6*--6|S|8-88-888-8-88-888|
E:-----|T|-----|T|-----------------|

G:-------------------------------------|
D:---4-5-6-----5-6-7----7-8-9-----7-8-9|
A:5--------6-6-------8--------8-8------|
E:-------------------------------------|

G:-----------------------------------|---------------------------|
D:-----------------------------------|---4-5-6-----5-6-7---------|
A:5-55-555-6-66-666-8-88-888-8-88-888|5--------6-6---------------|
E:-----------------------------------|-------------------1x18-1-1|

Third Chorus
G:----------------------------------------------|
D:----------------------------------------------|
A:----------------------------------------------|
E:5-55-55-55-55-55-55-55-55-55-55-55-55-55-55-55|

G:-------------------------------------|
D:---------2-5-2-4-2-------------------|
A:0--0-3-5-------------------5*--/15*--|
E:-------------------1-1-1-1-----------|

G:-------------------------------------------------|
D:-------------------------------------------------|
A:--------------------------5-55-55-55-5-3-33-33-33|
E:5-55-55-55-5-1-11-11-11-1------------------------|

G:-------------------------------------------------|
D:-------------------------------------------------|
A:--------------------------5-55-55-55-5-3-33-33-33|
E:5-55-55-55-5-1-11-11-11-1------------------------|

G:-------------------------------------------------|
D:-------------------------------------------------|
A:--------------------------5-55-55-55-5-3-33-33-33|
E:5-55-55-55-5-1-11-11-11-1------------------------|

G:---------------------------------------------------|
D:---------------------------------------------------|
A:--------------------------5-55-55-55-5-3-33-33-33-0|
E:5-55-55-55-5-1-11-11-11-1--------------------------|

End
G:-----|
D:-----|
A:-----|
E:55555|

That's it! Not the easiest song, and I think it shows that Nikki really is a good 
Make sure you play it rude, and snotty, and I already put it all in order for you. Any 
or comments, e-mail me at rocklvson@yahoo.com

~Keep It Sleazy
Suggest correction
Creating personal tab
Creating personal tab
You can edit any tab online and save it as your Personal.

You can edit, replace or remove any tab part or add personal notes – all changes will be seen only by you.

Personal tabs can be accessed anytime from any device, even offline.
Learn more »
Give kudos to tab author, rate the tab!
1 2 3 4 5
comments
print report bad tab
guest
You may want to rate the tab now too:
select rating
Wanna post a correction for this tab? Suggest correction