Oops, an error
Loading. Please wait.

Asian Treasure solo tab

version 1
version 1

Solo

Whole song

by Cueshé
432 views 1 this week
1 commentread comment
1 2 3 4 5
3 more votes to show rating
add to favorites
×
Save as Personal and add changes to this tab that will be seen only by you. Learn more ›
×
You can save this tab as Personal to edit and correct it or add notes. All changes will be seen only by you. Learn more »
launch autoscroll
font size
0
reset
how to read this tab
guitar tuner
edit
Autoscroll
slow
fast
+/-
esc
set tempo
stop
Author
Difficulty
Title:walang yamang mas hihigit sa'yo
Artist: Cueshe
Tabbed by: Rodel F. Fariñas a.k.a. mr4ever_more
Date:March 01, 2007
Contact #: 09196998754

Legend:
*: put some vibration on your fingers, hindi ko po alam ung term nila dun e..pero this
the sounds more accurate in the original song...
\:slide back
Intro:
Guitar 1:
e------------------------------------------...I
b-----------8*----------8*-----------------...I
g-----10-8--------10-8-------10-8--7*------...I
d---8-----8-----8-----8-----8----8----8\---...I
a--8-----------8-----------8---------------...I
E------------------------------------------...I
guitar 2:(base)
e---------------------------------------------...I
b---------------------------------------------...I
g---------------------------------------------...I
d-------------------------------------10------...(hold)I
a--------------------------------------8------...(hold)I
E---------------------------------------------...I
Verse: F-C-Dm-Bb

(Base)
d10-10(hold)------------------------------------...I
a-8-8 (hold)-10-10(hold)-12-12(hold)--8-8-------...(hold)-I
E-------------8-8(hold)--10-10(hold)--6-6-------...(hold)-I

guitar 1:
e------------------------------------------------------...I
b------------------------------------------------------...I
g----10-8--7*------------------------------------------...Iplay this 8 times for the first two lines of
d---8----8---------------------------------------------...I    verse.......while the base for better
a--8-----------------------I              sounds...----..
E------------------------------------------------------...I

e------------------------------------------------------------------..I
b----------------------8*------------------------------------------..I
g----10-8--7*----10-8------Iplay this throughout the next verse..--..
d---8----8------8----8---------------------------------------------..I
a--8-----------8---------------------------------------------------..I
E------------------------------------------------------------------..I

refrain:
use the base or the chords of Dm-Bb-C(2x)

d-------------|
a--12--8-10---|
E--10--6--8---|
   Dm  Bb C

chorus:
use the chords F-C-Bb for the pattern....

2nd intro:


e-----------------------------------------------------...I
b-----------8*----------8*---------8*-----------------...I
g-----10-8--------10-8-------10-8-------10-8--7*------...I
d---8-----8-----8-----8-----8----8-----8-I--8----8/---...I
a--8-----------8-----------8----------8---------------...I
E-----------------------------------------------------...I

2nd verse:

e-------------------------------------------------------------..I
b----------------------8*-------------------------------------..I
g----10-8--7*----10-8------Iplay this throughout the verse..--..
d---8----8------8----8----------------------------------------..I
a--8-----------8----------------------------------------------..I
E-------------------------------------------------------------..I

hope this tab will help you a lot...esp to the beginners out there like me...im open for
comment and suggestions...this is just the revision of my last tab...pls...pakirate po!....

helow to my friends out there who text me and give comment for my
sis jana!...Amer from mindanao...jeff from pangasinan...rj from bacolod...geline from 
to all
you...
rock your world!

            
            
Suggest correction
Creating personal tab
Creating personal tab
You can edit any tab online and save it as your Personal.

You can edit, replace or remove any tab part or add personal notes – all changes will be seen only by you.

Personal tabs can be accessed anytime from any device, even offline.
Learn more »
Give kudos to tab author, rate the tab!
1 2 3 4 5
comments
print report bad tab
1 comment total.
0 reply
viper07 1,581 May 09, 2007 03:29 AM

hindi clear ung tab mo. at saka ung title, asian treasures?

guest
You may want to rate the tab now too:
select rating
Wanna post a correction for this tab? Suggest correction