Oops, an error
Loading. Please wait.

Felicita Tab

5,160 views 6 this week
1 commentread comment
1 2 3 4 5
2 more votes to show rating
add to favorites
launch autoscroll
font size
0
reset
how to read this tab
guitar tuner
×
Best way to learn
"Felicita"
Autoscroll
slow
fast
+/-
esc
set tempo
stop
Author
Boney neM - Felicita
Album : The Very Best of Greatest Hits ('2001)


Intro

Riff 1

Gtr1 and Gtr2

||----------------------------------||
||----*-*-*---*-*-*---*-*-*---------||
||----7-6-5---7-6-5---7-6-5---------||
||----5-4-3---5-4-3---5-4-3---------||
||----------------------------------||
||----------------------------------||
(* - during the song, guitar1 plays lower notes, guitar2 - upper)

 
Riff 1a

Gtr1 and Gtr2                                          x7
||------------------------------------------------------|-----------------------------------||
||*-------------------------------------------*--*-*---*|-----------------------------------||
||---------5------------5------------5--------/7-6-5----|---------5------------5--------12~-||
||---------5------------5------------5--------/5-4-3----|---------5------------5------------||
||*--3-3-3-3-3-3-—3-3-3-3-3-3--3-3-3-3-3-3-------------*|---3-3-3-3-3-3-—3-3-3-3-3-3--------||
||------------------------------------------------------|--------------------------------3~-||

p.m. . . .   . .  . . .   . .  . . .   . .                  . . .   . .  . . .   . .

 
Verse

Riff 2

Gtr1 and Gtr2                                          x2
||------------------------------------------------------|
||*-----------------------------------------------------|
||----------5------------5------------5------------5----|
||----------5------------5------------5------------5----|
||*---3-3-3-3-3-3-—3-3-3-3-3-3--3-3-3-3-3-3--3-3-3-3----|
||------------------------------------------------------|
p.m.  . . .   . .  . . .   . .  . . .   . .  . . .  

 
Gtr1 and Gtr2                                          x2

||------------------------------------------------------|
||*-----------------------------------------------------|
||----------7------------7------------7------------7----|
||----------7------------7------------7------------7----|
||*---5-5-5-5-5-5-—5-5-5-5-5-5--5-5-5-5-5-5--5-5-5-5----|
||------------------------------------------------------|
p.m.  . . .   . .  . . .   . .  . . .   . .  . . .  

 
Tabbed by Radchenko Konstantin
Suggest correction
Give kudos to tab author, rate the tab!
1 2 3 4 5
comments
print report bad tab
1 comment total.
0 reply
KISS_Fan 1,383 Jan 25, 2007 05:27 PM

bleh

guest
You may want to rate the tab now too:
select rating
Wanna post a correction for this tab? Suggest correction