Oops, an error
Loading. Please wait.
We have an official Ace Of Spades tab made by UG professional guitarists. Check out the tab »
×

Ace Of Spades bass

version 2
version 2

Whole song

  • I have been playing this for a while and it seems to fit pretty well.
  • Transcribed from CoverSolutions, video link in tab. Arranged for autoscroll.
9,136 views 9 this week
6 commentsread comments
1 2 3 4 5
x 3
add to favorites
×
Save as Personal and add changes to this tab that will be seen only by you. Learn more ›
×
You can save this tab as Personal to edit and correct it or add notes. All changes will be seen only by you. Learn more »
launch autoscroll
font size
0
reset
guitar tuner
backing track
0:00
0:00
edit
Autoscroll
slow
fast
+/-
esc
set tempo
stop
Intro
    Q=280
   4/4
    Gtr I
                                                          TP
    Q  E E +E  E E E   Q  Q  Q  Q   3x Q  E E +E  E E E   W
||-------------------|--------------||------------------|------|
||o------------------|-------------o||------------------|------|
||o-7--7-7-(7)-7-7-7-|-7--7--7--5--o||-7--7-7-(7)-7-7-7-|-7----|
||-------------------|--------------||------------------|------|


    Q  Q  E E Q    Q  E E +E  E Q    Q  Q  E E Q    Q  E E +E  E Q
||---------------|-----------------|--------------|-------------------||
||o--------------|-----------------|--------------|------------------o||
||o-7--7--7-7-7--|-7--7-7-(7)-7-5--|-7--7--7-7-7--|-7--7-7-(7)-7-5---o||
||---------------|-----------------|--------------|-------------------||


   Verse
    $
    Q  Q  E E Q    Q  E E +E  E Q   3x Q.   E +Q   Q    +E  Q.   Q  Q
||---------------|------------------||----------------|-----------------|
||o-5--5--5-5-5--|-5--5-5-(5)-5-5--o||-5----5-(5)--5--|-(5)-5----5--5---|
||o--------------|-----------------o||----------------|-----------------|
||---------------|------------------||----------------|-----------------|


    Q  Q  E E Q    Q  E E +E  E Q    Q  Q  E E Q    Q  E E +E  E Q
||---------------|-----------------|--------------|-------------------||
||o--------------|-----------------|--------------|------------------o||
||o-7--7--7-7-7--|-7--7-7-(7)-7-7--|-7--7--7-7-7--|-7--7-7-(7)-7-7---o||
||---------------|-----------------|--------------|-------------------||


    Q  Q  E E Q    Q  E E +E  E Q    Q  Q  E E Q
||---------------|-----------------|--------------|
||o--------------|-----------------|--------------|
||o-5--5--5-5-5--|-5--5-5-(5)-5-5--|-3--3--3-3-3--|
||---------------|-----------------|--------------|


  Q  E E +E  E Q    Q  Q  E E Q    Q  E E +E  E Q
|-----------------|--------------|-----------------|
|-----------------|--------------|-----------------|
|-3--3-3-(3)-3-3--|-7--7--7-7-7--|-7--7-7-(7)-7-7--|
|-----------------|--------------|-----------------|


                          To Coda
  Q  Q  E E Q    Q  E E +E  E Q      Q  Q  E E Q
|--------------|------------------||--------------|
|--------------|-----------------o||--------------|
|-7--7--7-7-7--|-7--7-7-(7)-7-7--o||-7--7--7-7-7--|
|--------------|------------------||--------------|


                                      D.S. al Coda
  Q  E E +E  E Q    Q  Q  E E Q    Q  E E +E  E Q
|-----------------|--------------|------------------||
|-----------------|--------------|------------------||
|-7--7-7-(7)-7-7--|-7--7--7-7-7--|-7--7-7-(7)-7-7---||
|-----------------|--------------|------------------||


 Middle Section
  &
  Q  Q  E E Q    Q  E E +E  E Q    Q  Q  E E Q
|--------------|-----------------|--------------|
|--------------|-----------------|--------------|
|-7--7--7-7-7--|-7--7-7-(7)-7-5--|-7--7--7-7-7--|
|--------------|-----------------|--------------|


  Q  E E +E  E Q    Q  Q  E E Q    Q  E E +E  E Q
|-----------------|--------------|------------------|
|-----------------|--------------|------------------|
|-7--7-7-(7)-7-5--|-7--7--7-7-7--|-7--7-7-(7)-7-5---|
|-----------------|--------------|------------------|


  Q  Q  E E Q    Q  E E +E  E Q
|--------------|-----------------||
|--------------|-----------------||
|-7--7--7-7-7--|-7--7-7-(7)-7-5--||
|--------------|-----------------||


  Q  Q  H      H    Q  Q    Q  Q  H      W
|------------|------------|------------|------|
|------------|------------|------------|------|
|-7----------|---------5--|-7----------|------|
|------------|------------|------------|------|


  W          W          Q  Q  Q  Q
|----------|----------|-------------|
|----------|----------|-------------|
|----------|----------|-7--7--7--7--|
|----------|----------|-------------|


  Q  Q  Q  Q    Q  Q  E E Q    Q  E E +E  E Q
|-------------|--------------|------------------|
|-------------|--------------|------------------|
|-7--7--7--7--|-5--5--5-5-5--|-5--5-5-(5)-5-5---|
|-------------|--------------|------------------|


  Q  Q  E E Q    Q.   E +Q   Q    Q  Q  E E Q
|--------------|----------------|--------------|
|--------------|----------------|--------------|
|-5--5--5-5-5--|-7----5-(5)--3--|-2--2--2-2-2--|
|--------------|----------------|--------------|


  Q  E E +E  E Q    Q  Q  E E Q    Q  E E +E  E Q
|-----------------|--------------|------------------||
|-----------------|--------------|------------------||
|-2--2-2-(2)-2-2--|-2--2--2-2-2--|-2--2-2-(2)-2-2---||
|-----------------|--------------|------------------||


   Guitar Solo
    Q  Q  E E Q    Q  E E +E  E Q   3x Q.   E +Q   Q    +E  Q.   Q  Q
||---------------|------------------||----------------|-----------------|
||o--------------|-----------------o||----------------|-----------------|
||o-0--0--0-0-0--|-0--0-0-(0)-0-0--o||-0----0-(0)--0--|-(0)-0----0--0---|
||---------------|------------------||----------------|-----------------|


    Q  Q  E E Q    Q  E E +E  E Q   3x Q.   E +Q   Q    +E  Q.   Q  Q
||---------------|------------------||----------------|-----------------|
||o--------------|-----------------o||----------------|-----------------|
||o-2--2--2-2-2--|-2--2-2-(2)-2-2--o||-2----2-(2)--2--|-(2)-2----2--2---|
||---------------|------------------||----------------|-----------------|


    Q  Q  E E Q    Q  E E +E  E Q   3x Q.   E +Q   Q    +E  Q.   Q  Q
||---------------|------------------||----------------|-----------------||
||o--------------|-----------------o||----------------|-----------------||
||o-0--0--0-0-0--|-0--0-0-(0)-0-0--o||-0----0-(0)--0--|-(0)-0----0--0---||
||---------------|------------------||----------------|-----------------||


   Re-Intro & Final Verse
    Q  Q  E E Q    Q  E E +E  E Q   4x     Q  Q  E E Q    Q  E E +E  E Q   3x
||---------------|------------------||-||---------------|------------------||
||o--------------|-----------------o||-||o-5--5--5-5-5--|-5--5-5-(5)-5-5--o||
||o-7--7--7-7-7--|-7--7-7-(7)-7-7--o||-||o--------------|-----------------o||
||---------------|------------------||-||---------------|------------------||


  Q.   E +Q   Q    +E  Q.   Q  Q      Q  Q  E E Q    Q  E E +E  E Q   4x
|----------------|----------------||---------------|------------------||
|-5----5-(5)--5--|-(5)-5----5--5--||o--------------|-----------------o||
|----------------|----------------||o-7--7--7-7-7--|-7--7-7-(7)-7-7--o||
|----------------|----------------||---------------|------------------||


  Q  Q  E E Q    Q  E E +E  E Q    Q  Q  E E Q
|--------------|-----------------|--------------|
|--------------|-----------------|--------------|
|-5--5--5-5-5--|-5--5-5-(5)-5-5--|-3--3--3-3-3--|
|--------------|-----------------|--------------|


  Q  E E +E  E Q      Q  Q  E E Q    Q  E E +E  E Q
|-----------------||---------------|-------------------||
|-----------------||o--------------|------------------o||
|-3--3-3-(3)-3-3--||o-7--7--7-7-7--|-7--7-7-(7)-7-7---o||
|-----------------||---------------|-------------------||


  Q  Q  E E Q    Q  E E +E  E Q    Q  Q  E E Q
|--------------|-----------------|--------------|
|--------------|-----------------|--------------|
|-5--5--5-5-5--|-5--5-5-(5)-5-5--|-3--3--3-3-3--|
|--------------|-----------------|--------------|


  Q  E E +E  E Q      Q  Q  E E Q    Q  E E +E  E Q
|-----------------||---------------|-------------------||
|-----------------||o--------------|------------------o||
|-3--3-3-(3)-3-3--||o-7--7--7-7-7--|-7--7-7-(7)-7-7---o||
|-----------------||---------------|-------------------||


   Outro
    Q  Q  E E Q    Q  E E +E  E Q   4x     Q  Q  E E Q    Q  E E +E  E Q
||---------------|------------------||-||---------------|-----------------|
||o--------------|-----------------o||-||o-7--7--7-7-7--|-7--7-7-(7)-7-7--|
||o-7--7--7-7-7--|-7--7-7-(7)-7-7--o||-||o-5--5--5-5-5--|-5--5-5-(5)-5-5--|
||---------------|------------------||-||---------------|-----------------|


  Q  Q  E E Q    Q  E E +E  E Q
|--------------|------------------||
|-5--5--5-5-5--|-5--5-5-(5)-5-5--o||
|-3--3--3-3-3--|-3--3-3-(3)-3-3--o||
|--------------|------------------||


  Q.   E +Q   Q     W          Q.   E +Q   Q
|-----------------|----------|-----------------*|
|-9----7-(7)--9\--|----------|-9----7-(7)--9\--*|
|-7----5-(5)--7\--|----------|-7----5-(5)--7\--*|
|-----------------|----------|-----------------*|




--------------------------------------------------------------------------------


Duration Legend
---------------
W - whole; H - half; Q - quarter; E - 8th; S - 16th; T - 32nd; X - 64th; a - acciaccatura
+ - note tied to previous; . - note dotted; .. - note double dotted
Uncapitalized letters represent notes that are staccato (1/2 duration)
Irregular groupings are notated above the duration line
Duration letters will always appear directly above the note/fret number it represents the
duration for.  Duration letters with no fret number below them represent rests.  Multi-
bar rests are notated in the form Wxn, where n is the number of bars to rest for.  Low
melody durations appear below the staff

Tablature Legend
----------------
 h   - hammer-on
 p   - pull-off
 b   - bend
 pb  - pre-bend
 r   - bend release (if no number after the r, then release immediately)
 /\  - slide into or out of (from/to "nowhere")
 s   - legato slide
 S   - shift slide
 - natural harmonic
[n]  - artificial harmonic
n(n) - tapped harmonic
 ~   - vibrato
 tr  - trill
 T   - tap
 TP  - trem. picking
 PM  - palm muting
\n/  - tremolo bar dip; n = amount to dip
 \n  - tremolo bar down
 n/  - tremolo bar up
/n\  - tremolo bar inverted dip
 =   - hold bend; also acts as connecting device for hammers/pulls
 <> - volume swell (louder/softer)
 x   - on rhythm slash represents muted slash
 o   - on rhythm slash represents single note slash



            
            
Suggest correction
Creating personal tab
Creating personal tab
You can edit any tab online and save it as your Personal.

You can edit, replace or remove any tab part or add personal notes – all changes will be seen only by you.

Personal tabs can be accessed anytime from any device, even offline.
Learn more »
Give kudos to tab author, rate the tab!
1 2 3 4 5
comments
print report bad tab
6 comments total. Showing first comments.
0 reply
szekelymihai 414 May 09, 2007 07:51 AM

uhm man this is a guitar pro 5 import

0 reply
SoftParade1967 512 May 29, 2007 12:46 PM

whats the guitar pro import?

-1 reply
mrlee192 99 Aug 07, 2007 02:56 AM

you must have tabbed this in E# tuning

guest
You may want to rate the tab now too:
select rating
Wanna post a correction for this tab? Suggest correction