Oops, an error
Loading. Please wait.

Borrowed Time tab

version 2
version 2

Whole song

by Cueshé
1,546 views 1 this week
no commentswrite comment
1 2 3 4 5
2 more votes to show rating
add to favorites
×
Save as Personal and add changes to this tab that will be seen only by you. Learn more ›
×
You can save this tab as Personal to edit and correct it or add notes. All changes will be seen only by you. Learn more »
launch autoscroll
font size
0
reset
how to read this tab
guitar tuner
edit
Autoscroll
slow
fast
+/-
esc
set tempo
stop
Author
Tabbed by: cueshe
Eartabber: Mark Larry S. Saquing
E-mail: malasaquing_viper123@yahoo.com
hello sa mga taga cabagan at REGSCIHYERS

|--7----------------4----4---4---4-|
|--9----9---9---9---5--5---5---5---|
|--9--9---9---9-----6--------------|
|--9----------------6--------------|
|----------------------------------|
|----------------------------------|

repeat nyo 4 times....tpos.....

|--7--------7-------4----4---7---4-|
|--9----9-------9---5--5---5---5---|
|--9--9---9---9-----6--------------|
|--9----------------6--------------|
|----------------------------------|
|----------------------------------|

repeat nyo twice................

verse 1: E-B-C#m-A
E                 B
every fight needs mending
                   C#m
every start has an end
                         A
like the sunrise and the sunset
                       
that's just how it ends

|--7--------7-------4----4---7---4-|
|--9----9-------9---5--5---5---5---|
|--9--9---9---9-----6--------------|
|--9----------------6--------------|
|----------------------------------|
|----------------------------------|
repeat nyo twice

E                 B
love one borrowed time
                        C#m
will never be yours nor mine
                         A
i need you like you need me
               B-A
where i oughta be


chorus: E-B-C#m-A
E                  B
oh it's good to be true
       C#m                   A
if our hopes and dreams come true
E                B             C#m
wish that i have more of this borrowed time
   A                            
if only it would last a lifetime

|--7--------7-------4----4---7---4-|
|--9----9-------9---5--5---5---5---|
|--9--9---9---9-----6--------------|
|--9----------------6--------------|
|----------------------------------|
|----------------------------------|
repeat nyo twice

verse 2: E-B-C#m-A

this bitterness inside
is an  empty space i hide
it never satisfies
livin' my life in a lie

love one borrowed time
will never be yours nor mine
i just closed my eyes
i know that it will be alright

rep chorus:

bridge: F-G-A
F        G             A
now that you have gone away
F            G                A--
you seems so close but you're miles and miles away

rep chorus using this plucking:

|----------0-----0----------------------------|
|------0-----0----------4--2h4-5-4-0----------|
|----1---1-----1------4-----------------------|
|--2----------------4-------------------------|
|---------------------------------------------|
|---------------------------------------------|

|----------4----------------0-----0-----------|
|------5-----5---5------2-----2---------------|
|----6---6-----6------2---2-----2-------------|
|--6----------------2-------------------------|
|---------------------------------------------|
|---------------------------------------------|

repeat 2x

repeat chorus 2x(strumming n d2)

tpos puro A na ung chords

Godspeed! ROCK ON!!!

Suggest correction
Creating personal tab
Creating personal tab
You can edit any tab online and save it as your Personal.

You can edit, replace or remove any tab part or add personal notes – all changes will be seen only by you.

Personal tabs can be accessed anytime from any device, even offline.
Learn more »
Give kudos to tab author, rate the tab!
1 2 3 4 5
comments
print report bad tab
guest
You may want to rate the tab now too:
select rating
Wanna post a correction for this tab? Suggest correction