Oops, an error
Loading. Please wait.

Our Velocity tab

version 1
version 1

Whole song

Interactive

20,873 views 21 this week
1 commentread comment
1 2 3 4 5
x 10
add to favorites
×
Save as Personal and add changes to this tab that will be seen only by you. Learn more ›
×
You can save this tab as Personal to edit and correct it or add notes. All changes will be seen only by you. Learn more »
launch autoscroll
font size
0
reset
how to read this tab
guitar tuner
edit
Autoscroll
slow
fast
+/-
esc
set tempo
stop
Author
Difficulty
Tabbed by 'The Bear'.

A very simple tune but extremely effective. There are 3 main parts - The intro/verse 
the 1st chorus, and the 2nd chorus.


Intro/Verse riff:

e--|---------|-----------------------------------------|--|
B--|---------|-----------------------------------------|--|
G--|---------|-----------------------------------------|--|
D--|---0-0-0-|----------------------------------7-7-7--|--|
A--|---0-0-0-|------7-7-7--5-5-5---------7-7-7--0-0-0--|--|
E--|---0-0-0-|--0---0-0-0--0-0-0-----0---0-0-0--0-0-0--|--| REPEAT


1st Chorus (Never never try to guage temperature):


e--|---3-----3--3-----3--3--3----6-6-6-6---|--|
B--|---3-----3--3-----3--3--3----8-8-8-8---|--|
G--|---3-----3--3-----3--3--3----8-8-8-8---|--|
D--|---5-----5--5-----5--5--5----8-8-8-8---|--|
A--|---5-----5--5-----5--5--5----6-6-6-6---|--|
E--|---3-----3--3-----3--3--3--------------|--| REPEAT ONCE THEN PLAY:


e--|---6-----6--6-----6--6--6--X--4--4----|--|
B--|---6-----6--6-----6--6--6--X--4--4----|--|
G--|---7-----7--7-----7--7--7--X--5--5----|--|
D--|---8-----8--8-----8--8--8--X--6--6----|--|
A--|---8-----8--8-----8--8--8--X--6--6----|--|
E--|---6-----6--6-----6--6--6--X--4--4----|--| REPEAT WHOLE SECTION AGAIN.


2nd Chorus (I've got no-one to call):


e--|--6-6-6-6-6-6-6-6---8--8--8--8--8--8--8--8--11-11-11-11-11-11-11-11--|
B--|--8-8-8-8-8-8-8-8---9--9--9--9--9--9--9--9--13-13-13-13-13-13-13-13--|
G--|--8-8-8-8-8-8-8-8---8--8--8--8--8--8--8--8--13-13-13-13-13-13-13-13--|
D--|--8-8-8-8-8-8-8-8--10-10-10-10-10-10-10-10--13-13-13-13-13-13-13-13--|
A--|--6-6-6-6-6-6-6-6---8--8--8--8--8--8--8--8--11-11-11-11-11-11-11-11--|
E--|---------------------------------------------------------------------|


e--|--10-10-10-10-10-10-10-10--6-6-6-6-6-6-6-6---8--8--8--8--8--8--8--8--|
B--|--11-11-11-11-11-11-11-11--8-8-8-8-8-8-8-8---9--9--9--9--9--9--9--9--|
G--|--10-10-10-10-10-10-10-10--8-8-8-8-8-8-8-8---8--8--8--8--8--8--8--8--|
D--|--12-12-12-12-12-12-12-12--8-8-8-8-8-8-8-8--10-10-10-10-10-10-10-10--|
A--|--10-10-10-10-10-10-10-10--6-6-6-6-6-6-6-6---8--8--8--8--8--8--8--8--|
E--|---------------------------------------------------------------------|


e--|--8--8--8--8--8--8--8---6---6-6-6-6-6-6-6--|--|
B--|--8--8--8--8--8--8--8---6---6-6-6-6-6-6-6--|--|
G--|--8--8--8--8--8--8--8---7---7-7-7-7-7-7-7--|--|
D--|-10-10-10-10-10-10-10---8---8-8-8-8-8-8-8--|--|
A--|-10-10-10-10-10-10-10---8---8-8-8-8-8-8-8--|--|
E--|--8--8--8--8--8--8--8---6---6-6-6-6-6-6-6--|--| REPEAT AS NECESSARY

Middle 8:


e--|-------------------------------------------------------|
B--|-------------------------------------------------------|
G--|-------------------------------------------------------|
D--|-------------------------------------------------------|
A--|--------5--------------6----------5------------6-------|
E--|--3---3------3--3-3--6------3---3------3--3-3----6-----|


e--|----------------------------1-------3---------|----3---------|--|
B--|------3------4-------3----1---------3------4--|----3-----4---|--|
G--|--0-------3-------0--------------0-------3----|-0------3-----|--|
D--|----------------------------------------------|--------------|--|
A--|----------------------------------------------|-REPEAT THIS--|--|
E--|----------------------------------------------|-SECTION ONCE-|--|


e--|--3-3-3-3-3-3-3-3--|-10-10-10-10-10-10-10-10--|-15-15-15-15-15-15-15-15-|
B--|--3-3-3-3-3-3-3-3--|--X--X--X--X--X--X--X--X--|--X--X--X--X--X--X--X--X-|
G--|--0-0-0-0-0-0-0-0--|--0--0--0--0--0--0--0--0--|--0--0--0--0--0--0--0--0-|
D--|-------------------|-------------------|--------------------------------|
A--|-----THESE FAST STRUMMED SECTIONS LEADS INTO THE 2ND CHORUS AGAIN ------|
E--|----------LISTEN TO THE SONG FOR THE TIMINGS OF THE CHANGES ------------|


After the 2nd Chorus again it leads straight back into the 1st Chorus to the end of the song.

            
            
Suggest correction
Creating personal tab
Creating personal tab
You can edit any tab online and save it as your Personal.

You can edit, replace or remove any tab part or add personal notes – all changes will be seen only by you.

Personal tabs can be accessed anytime from any device, even offline.
Learn more »
comments
print report bad tab
1 comment total.
0 reply
zakula 10 May 11, 2007 09:48 AM

a guitar pro tab of the song would be perfect ! ! !

guest
You may want to rate the tab now too:
select rating
Wanna post a correction for this tab? Suggest correction