Oops, an error
Loading. Please wait.

Eighteen tab

version 1
version 1

Whole song

448 views 1 this week
no commentswrite comment
1 2 3 4 5
3 more votes to show rating
add to favorites
×
Save as Personal and add changes to this tab that will be seen only by you. Learn more ›
×
You can save this tab as Personal to edit and correct it or add notes. All changes will be seen only by you. Learn more »
launch autoscroll
font size
0
reset
how to read this tab
guitar tuner
edit
Autoscroll
slow
fast
+/-
esc
set tempo
stop
Author
Song: Eighteen
Band: ¡Forward, Russia

Great band, Great song!
So i thought i’d tab it for everyone that wants it.

Intro

|----------------------3--3-----3--3-----------------|
|---3--3-----3--3------1--1-----1--1-----------------|
|---3--3-----3--3------------------------------------|
|---3--3-----3--3------2--2-----2--2-----------------|
|---1--1-----1--1------3--3-----3--3-----------------|
|----------------------------------------------------|

Verse

|--2--2----2--2-----------------------------------|
|--3--3----3--3--------1--1-----1--1--------------|
|--2--2----2--2-----------------------------------|
|----------------------2--2-----2--2--------------|
|----------------------3--3-----3--3--------------|
|-------------------------------------------------|
Time to fall asleep

|--1--
|--1--
|--1--
|--3--
|--3--
|--1--
And take the fractions of emotions

|-------------------------2-----|
|-------------------------3-----|
|----------2------6-------2-----|
|----------2------7-------------|
|-----------------7-------------|
|-----------------5-------------|
That still litter your stale dreams like barley

|------------|
|--1--1------|
|------------|
|--2--2------|
|--3--3------|
|------------|
I'm falling asleep

|--1--
|--1--
|--1--
|--3--
|--3--
|--1--
I'll bear this broken down cross with you

|----------------------------------------|
|------------------------------1---------|
|--2---------------------------2---------|
|--2---------------------------2---------|
|----------------------------------------|
|----------------------------------------|

Piece it together like you wanted me to

|----5---6---8---6---5------------------------5---6---8---6---5----------|
|--------------------------8---6---5---6---8-----------------------------|
|------------------------------------------------------------------------|
|------------------------------------------------------------------------|
|------------------------------------------------------------------------|
|------------------------------------------------------------------------|

I'll protect your sense of right

|----------------------------5---6---8---6---5-------------------------5---6---------|
|------8---6---5---6---8------------------------8---6---5---6---8--------------------|
|------------------------------------------------------------------------------------|
|------------------------------------------------------------------------------------|
|------------------------------------------------------------------------------------|
|------------------------------------------------------------------------------------|
I'll dissect your senses till you find me.

(repeat these chords for the next verse)


|--2--2--2--2--2--2----------------------------|
|--3--3--3--3--3--3------1--1--1---------------|
|--2--2--2--2--2--2----------------------------|          <— REPEAT
|-------------------------2--2--2--------------|
|-------------------------3--3--3--------------|
|----------------------------------------------|


|--2------------|
|--3-------1----|
|--2------------|
|----------2----|
|----------3----|
|---------------|
                                             <– REPEAT
|--------------------------|
|--1--1-------2----3-------|
|-------------2----3-------|
|--2--2-------2----3-------|
|--3--3------------1-------|
|--------------------------|

And it's another obsidian bloodbath
But don't lie
When you said the alps never would grow flat
You called out wolf too many times.


(return to original verse chords)
|--2---1----------|
|--3---1----3-----|
|--2---1----3-----|
|------3----3-----|
|------3----1-----|
|------1----------|

I'm falling asleep (x6)


|----5---6---8---6---5------------------------5---6---8---6---5----------|
|--------------------------8---6---5---6---8-----------------------------|
|------------------------------------------------------------------------|
|------------------------------------------------------------------------|
|------------------------------------------------------------------------|
|------------------------------------------------------------------------|

I'll protect your sense of right

|----------------------------5---6---8---6---5-------------------------5---6---------|
|------8---6---5---6---8------------------------8---6---5---6---8--------------------|
|------------------------------------------------------------------------------------|
|------------------------------------------------------------------------------------|
|------------------------------------------------------------------------------------|
|------------------------------------------------------------------------------------|
I'll dissect your senses till you find me.


Etc.


Sorry - I can't do the timing, but the chords are there and they fit perfectly.
It sounds perfect to me when i play it, so i assume i have it right.

Corrections are welcome.
c-c-c-cal@hotmail.co.uk

Cal.
Suggest correction
Creating personal tab
Creating personal tab
You can edit any tab online and save it as your Personal.

You can edit, replace or remove any tab part or add personal notes – all changes will be seen only by you.

Personal tabs can be accessed anytime from any device, even offline.
Learn more »
Give kudos to tab author, rate the tab!
1 2 3 4 5
comments
print report bad tab
guest
You may want to rate the tab now too:
select rating
Wanna post a correction for this tab? Suggest correction