Oops, an error
Loading. Please wait.

Books From Boxes bass

version 1
version 1

Whole song

Interactive

13,413 views 3 this week
1 commentread comment
1 2 3 4 5
x 13
add to favorites
×
Save as Personal and add changes to this tab that will be seen only by you. Learn more ›
×
You can save this tab as Personal to edit and correct it or add notes. All changes will be seen only by you. Learn more »
launch autoscroll
font size
0
reset
guitar tuner
edit
Autoscroll
slow
fast
+/-
esc
set tempo
stop
Difficulty
Maximo Park - Books From Boxes (Bass)
Great song from new album our earthly pleasures.

Intro
___________

G|-------------------------------------------|
D|-------------------------------------------|
A|--1-1--8-8--5-5--3-3--7-7--8-7--1-1--1-1---|
E|-------------------------------------------|

  Night Falls, and towns become circuit boards
G|---------------------|
D|---------------------|
A|--1-1--8-8--5-5--3-3-|
E|---------------------|

 We can beat the sun, as long as we keep moving
G|--------------------|
D|--------------------|
A|-1-1--3-3--5-5--5-5-|
E|--------------------|

 From the air, stadium lights stand out like flares
G|----------------------|
D|----------------------|
A|--1-1--8-8--5-5--3-3--|
E|----------------------|

  And all I know, is that your sat here right next to me
G|-----------------------|
D|-----------------------|
A|--7-7--8-7--1-1--1-1---|
E|-----------------------|

  We rarely see, warning signs in the air we breathe
G|----------------------|
D|----------------------|
A|--1-1--8-8--5-5--3-3--|
E|----------------------|

  Right now i feel each and every fragment
G|--------------------|
D|--------------------|
A|-1-1--3-3--5-5--5-5-|
E|--------------------|

  This paper trail leads right back to you
G|-----------------------|
D|-----------------------|
A|-1111111113355555555533
E|-----------------------

  You say you need me to step outside
G|-----------------------|
D|-----------------------|
A|11111111133555555555555
E|-----------------------

  We spent the evening
G|-----------------------|
D|-----------------------|
A|55555555555888888888888
E|-----------------------

  Unpacking books from boxes
G|-----------------------|
D|-----------------------|
A|11111111111111111111111
E|-----------------------

  You passed me up, so as not to break a promise
G|--------------------------------------------|
D|--------------------------------------------|
A|33333333333333333333333333333333333333333333
E|--------------------------------------------

  Scattered polaroids and sprinkled words around your collar
G|----------------------------------------------|
D|----------------------------------------------|
A|5555555555588888888888811111111111111111111111
E|----------------------------------------------

  In the long run, you said you knew that this would happen
G|----------------------------------------------|
D|----------------------------------------------|
A|3333333333333333333333333333333333333333333333
E|----------------------------------------------

  Well this was something new but it turns out it was borrowed too
G|----------------------|
D|----------------------|
A|--1-1--8-8--5-5--3-3--|
E|----------------------|

  Why does every let down have to be so thin
G|-----------------------|
D|-----------------------|
A|--7-7--8-7--1-1--1-1---|
E|-----------------------|

  Rain explodes, the moment that the cab door closed
G|----------------------|
D|----------------------|
A|--1-1--8-8--5-5--3-3--|
E|----------------------|

  I feel the weight upon your kiss ambiguous
G|--------------------|
D|--------------------|
A|-1-1--3-3--5-5------|
E|--------------------|

  You have to leave i appreciate that
G|-----------------------|
D|-----------------------|
A|-1111111113355555555533
E|-----------------------

  But i hate it when conversation slips out of our grasp
G|-----------------------|
D|-----------------------|
A|11111111133555555555555
E|-----------------------

  We spent the evening
G|-----------------------|
D|-----------------------|
A|55555555555888888888888
E|-----------------------

  Unpacking books from boxes
G|-----------------------|
D|-----------------------|
A|11111111111111111111111
E|-----------------------

  You passed me up, so as not to break a promise
G|--------------------------------------------|
D|--------------------------------------------|
A|33333333333333333333333333333333333333333333
E|--------------------------------------------

  Scattered polaroids and sprinkled words around your collar
G|----------------------------------------------|
D|----------------------------------------------|
A|5555555555588888888888811111111111111111111111
E|----------------------------------------------

  In the long run, you said you knew that this would happen
G|----------------------------------------------|
D|----------------------------------------------|
A|3333333333333333333333333333333333333333333333
E|----------------------------------------------


Solo

G|----------------------------------------------|
D|-------------------------------------6/7-6-4--|   x2
A|7777777771010101010101010105555555555---------|
E|----------------------------------------------|

  Two bodies in motion, its just a matter of fact, it wasn’t built to last
G|----------------------------------------------|
D|-------------------------------------6/7-6-4--|   x2
A|7777777771010101010101010105555555555---------|
E|----------------------------------------------|

  We spent the evening
G|-----------------------|
D|-----------------------|
A|55555555555888888888888
E|-----------------------

  Unpacking books from boxes
G|-----------------------|
D|-----------------------|
A|11111111111111111111111
E|-----------------------

  You passed me up, so as not to break a promise
G|--------------------------------------------|
D|--------------------------------------------|
A|33333333333333333333333333333333333333333333
E|--------------------------------------------

  Scattered polaroids and sprinkled words around your collar
G|----------------------------------------------|
D|----------------------------------------------|
A|5555555555588888888888811111111111111111111111
E|----------------------------------------------

  In the long run, you said you knew that this would happen
G|----------------------------------------------|
D|----------------------------------------------|
A|3333333333333333333333333333333333333333333333
E|----------------------------------------------

  The Pounding rain continued its bleak fall
G|----------------------------------------------|
D|----------------------------------------------|
A|5555555555588888888888811111111111111111111111
E|----------------------------------------------

  And we decided just to write after all, after all
G|----------------------------------------------|
D|----------------------------------------------|
A|3333333333333333333333333333333333333333333333
E|----------------------------------------------

G|--------------------------------------------|
D|--------------------------------------------|
A|--1-1--8-8--5-5--3-3--7-7--8-7--1-1--1-1----|
E|--------------------------------------------|

  The pounding rain, continued its bleak fall
G|---------------------|
D|---------------------|
A|--1-1--8-8--5-5--3-3-|
E|---------------------|

  And we decided just to write, after all
G|---------------------|
D|---------------------|
A|-1-1--3-3--5---------|
E|---------------------|


Nearly there i think...

            
            
Suggest correction
Creating personal tab
Creating personal tab
You can edit any tab online and save it as your Personal.

You can edit, replace or remove any tab part or add personal notes – all changes will be seen only by you.

Personal tabs can be accessed anytime from any device, even offline.
Learn more »
comments
print report bad tab
1 comment total.
0 reply
Jasper7979 51 Oct 10, 2007 08:51 AM

Nice Tab ... Thanx

guest
Wanna post a correction for this tab? Suggest correction