Oops, an error
Loading. Please wait.

Mit Dem Schwert Nach Polen Warum Ren chords

33,175 views 54 this week
3 commentsread comments
1 2 3 4 5
x 14
add to favorites
×
Save as Personal and add changes to this tab that will be seen only by you. Learn more ›
×
You can save this tab as Personal to edit and correct it or add notes. All changes will be seen only by you. Learn more »
launch autoscroll
font size
0
reset
transpose
0
reset
display chords
guitar tuner
edit
Autoscroll
slow
fast
+/-
esc
set tempo
stop
Author
Difficulty
Strumming
There is no strumming pattern for this song yet. and get +5 IQ
**Die Aerzte-Mit dem Schwert nach Polen, warum René?**




Riff1:
    Am                C            Em     G
E|---0---0-0-0---0--|------------|--0--|--3--|
B|---1---1-1-1---1--|------------|--0--|--3--|
G|---2---2-2-2---2--|---------0--|--0--|--0--|
D|---2---2-2-2---2--|-------2----|--2--|--0--|
A|---0---0-0-0---0--|-0-2-3------|--2--|--2--|
E|---0---0-0-0---0--|------------|--0--|--3--|


Riff2:
Am                C            Em     G
E|--------------|------------|--0--|--3--|
B|-----1--------|------------|--0--|--3--|
G|-------2-0-2--|---------0--|--0--|--0--|
D|---2----------|-------2----|--2--|--0--|
A|-0------------|-0-2-3------|--2--|--2--|
E|--------------|------------|--0--|--3--|

Am                         C                Em  G  
   Du bist zwanzig und dir waechst kein Bart
Am                           C      Em  G
   Deine Eltern sind bei der Post
Am                            C              Em  G
   Wohnst in Marzahn, das ist ziemlich hart
Am                     C      Em  G
   Hast ein Leben lang gelosed

Hm        A              G        Em     Hm          
   Keine Freunde, keine Maedchen... (keinen Job)
          A            G
Du waerst gern bei der Polizei

Riff2

Schon mit dreizehn bist du asthmakrank
Einsames Roecheln auf einem Baum
Skinheads verpruegeln dich, denken du waerst ein Punk
Und Kanada ist dein Traum

Wieviel kannst du noch ertragen? (wieviel mehr?)
Selbst dein Moped haben sie dir geklaut!

Am    C     D     F G

Du besorgst dir 2 Gaspistolen
Ninjawurfstern vom Freund
Du machst Kampfsport wie Jean Claude van Damme
Keine Angst mehr vor dem Feind

Einen Ninjadress aus dem Kaufhaus (100 Mark)
Von nem Freund leihst du dir ein Schwert

Am            C           D       F G
     Mit dem Schwert nach Polen
Am            C        D     F   G Am    
     Mit dem Schwert - sag warum Rene?

Deine Familie sieht dich nochmal im vollen Ninjadress
Du gehst ins Bett und denkst: Morgen ist mein grosser Tag
Handschellen, Seil, Munition (Funkgeraet)
Schwert, Pistolen und Kompassuhr

Mit dem Schwert...
Deine Mutter ist ahnungslos


            
            
Suggest correction
Creating personal tab
Creating personal tab
You can edit any tab online and save it as your Personal.

You can edit, replace or remove any tab part or add personal notes – all changes will be seen only by you.

Personal tabs can be accessed anytime from any device, even offline.
Learn more »
comments
print report bad tab
3 comments total.
+2 reply
Nighthawk2006 16 Apr 07, 2007 05:35 AM

excellent tab ;-)

+2 reply
embi 58 Mar 02, 2008 11:19 AM

Riff1 wird aber glaube ich so gespielt:

E|---0---0-0-0---0--|------------|--0--|--3--|
B|---0/1-1-1-1---0--|------------|--0--|--3--|
G|---2---2-2-2---2--|---------0--|--0--|--0--|
D|---2---2-2-2---2--|-------2----|--2--|--0--|
A|---0---0-0-0---0--|-0-2-3------|--2--|--2--|
E|---0---0-0-0---0--|------------|--0--|--3--|

0 reply
7R0773L 10 May 08, 2011 02:56 AM

Nice tab!! :D

But i think riff2 goes like this:

Am                C            Em     G
E|--------------|------------|--0--|--3--|
B|-----0--------|------------|--0--|--3--|
G|-------0---0--|---------0--|--0--|--0--|
D|---2-----2----|-------2----|--2--|--0--|
A|-0------------|-0-2-3------|--2--|--2--|
E|--------------|------------|--0--|--3--|

guest
You may want to rate the tab now too:
select rating
Wanna post a correction for this tab? Suggest correction