Oops, an error
Loading. Please wait.

Shout At The Devil bass

version 3
version 3

Whole song

Interactive

1,535 views 9 this week
1 commentread comment
1 2 3 4 5
2 more votes to show rating
add to favorites
×
Save as Personal and add changes to this tab that will be seen only by you. Learn more ›
×
You can save this tab as Personal to edit and correct it or add notes. All changes will be seen only by you. Learn more »
launch autoscroll
font size
0
reset
guitar tuner
backing track
0:00
0:00
edit
Autoscroll
slow
fast
+/-
esc
set tempo
stop
Difficulty
intermediate
I think this is right but I dont know, it sounds good

G---------------------------------------------------------|
D---------------------------------------------------------|
A---------------------------------------------------------|
E-12/-----12/-----12/-----12/-----12/-----12/-----12/-----|
Listen to the song for timing and whatnot

When the start saying "SHOUT"

G-----------------------------------|
D----------------------------5------|
A---1---3---1---3---1---3-345--5-3--|
E-33--33--33--33--33--33------------| Yeah listen to the song for the how many times to play that
G-----------------------------------|
D-------------------------5---------|
A----0-3---0-5---0-3--345--5-3------|
E-5-5---5-5---5-5-------------------|

 Play this a couple of times
then play...

G-----------------------------|
D-----------------------------|
A-5--3------------------------|
E-----------------------------|
And then continue a couple of times with...

G------------------------------|
D------------------------------|
A----0-3---0-5---0-3---5/-7777-|
E-5-5---5-5---5-5--------------|
Once again go back to this...

G-----------------------------|
D-----------------------------|
A-5--3------------------------|
E-----------------------------|

G-----------------------------|
D-----------------------------|
A----0-3---0-5---0-3----------|
E-5-5---5-5---5-5-------------|
And then the drums

Then...

G-------------------------------|
D---9-7--7-5--------------------|
A-7-----5-----------------------|
E-------------------------------|

G------------------------------|
D------------------------------|
A-5--3-------------------------|
E------------------------------|

Then way back to...

G----------------------------------|
D----------------------------5-----|
A---1---3---1---3---1---3-345--5-3-|
E-33--33--33--33--33--33-----------|
Yeah you can do that a couple of times

Then you do the...

G------------------------------|
D------------------------------|
A----0-3---0-5---0-3---5/-7777-|
E-5-5---5-5---5-5--------------|

G------------------------------|
D------------------------------|
A-5--3-------------------------|
E------------------------------|

G----------------------------------|
D----------------------------5-----|
A---1---3---1---3---1---3-345--5-3-|
E-33--33--33--33--33--33-----------|
And you do this again...

G-------------------------------|
D---9-7--7-5--------------------|
A-7-----5-----------------------|
E-------------------------------|

You do this for a while...
G----------------------------------|
D----------------------------5-----|
A---1---3---1---3---1---3-345--5-3-|
E-33--33--33--33--33--33-----------|

G------------------------------|
D------------------------------|
A-5--3-------------------------|
E------------------------------|

G----------------------------------|
D----------------------------5-----|
A---1---3---1---3---1---3-345--5-3-|
E-33--33--33--33--33--33-----------|

G------------------------------|
D------------------------------|
A----0-3---0-5---0-3---5/-7777-|
E-5-5---5-5---5-5--------------|
And the you keep on repeting the last three boxes above this writing till the outro

Then the outro is...
G-------------------------------|
D----7----5----3---5------------|
A---------------345-3-3---------|
E-5-5--5-5--5-5-----------------|
Just listen to the song I think it sounds all right
Yeah man, thats my first tab, so learn it, it took me like 48 minutes.
Suggest correction
Creating personal tab
Creating personal tab
You can edit any tab online and save it as your Personal.

You can edit, replace or remove any tab part or add personal notes – all changes will be seen only by you.

Personal tabs can be accessed anytime from any device, even offline.
Learn more »
Give kudos to tab author, rate the tab!
1 2 3 4 5
comments
print report bad tab
1 comment total.
0 reply
MaggaraMarine 1,223 Oct 26, 2010 09:04 AM

C'mon how many times we have to say that Mötleys use D standard tuning!!!!!!!!!!!!!!

guest
Wanna post a correction for this tab? Suggest correction