Oops, an error
Loading. Please wait.

Our Velocity bass

version 1
version 1

Whole song

Interactive

4,065 views 9 this week
2 commentsread comments
1 2 3 4 5
x 8
add to favorites
×
Save as Personal and add changes to this tab that will be seen only by you. Learn more ›
×
You can save this tab as Personal to edit and correct it or add notes. All changes will be seen only by you. Learn more »
launch autoscroll
font size
0
reset
guitar tuner
edit
Autoscroll
slow
fast
+/-
esc
set tempo
stop
Difficulty
maximo park
our velocity


verse
G--|-----------------------I-----------------------|
D--|-----------------------I-----------------------|
A--|-----------------------I-----------------------|
E--|-12---12---12-10-10-10-I-12---12---12-10-10-10-|


chorus
G--|--------------------------|--------------------------|------------------------|
D--|--------------------------|--------------------------|------------------------|
A--|---------------------6--6-|---------------------6--6-|------------------------|
E--|---3---3-3--3--3--3-------|--3---3-3--3--3--3--------|-6---6-6--6--6--6--4-4--|
play whole chorus twice


bridge
G--|--------------------------------------------------------------------------------|
D--|--------------------------------------------------------------------------------|
A--|-66666666666666666888888888888888888111111111111111111111010101010101010101010--|
E--|--------six------------eight------------------elevin------------ten-------------|

break down
G--|------------------------------------------------------------|
D--|------------------------------------------------------------|
A--|----------5-------------6------------5----------------6-----|
E--|--3---3------3--3-3--6------3---3--------3--3-3-----6-------|


Tabed By Blann In Swansea
this is my first time tabin a bass coz i play guitar! but i hope its right?

            
            
Suggest correction
Creating personal tab
Creating personal tab
You can edit any tab online and save it as your Personal.

You can edit, replace or remove any tab part or add personal notes – all changes will be seen only by you.

Personal tabs can be accessed anytime from any device, even offline.
Learn more »
comments
print report bad tab
2 comments total.
0 reply
tarbaguitar 10 Jul 13, 2007 01:44 AM

put in some order

0 reply
HeroWookie1337 10 Jan 08, 2015 05:54 AM

Clearly wrong. it doesnt work with the normal tuning.. its totally wrongg 20 woooooooooooords he he he go go gig gigigi FINALLY <(the last word)

guest
Wanna post a correction for this tab? Suggest correction