Oops, an error
Loading. Please wait.

Books From Boxes tab

version 1
version 1

Whole song

Interactive

111,790 views 105 this week
17 commentsread comments
1 2 3 4 5
x 55
add to favorites
×
Save as Personal and add changes to this tab that will be seen only by you. Learn more ›
×
You can save this tab as Personal to edit and correct it or add notes. All changes will be seen only by you. Learn more »
launch autoscroll
font size
0
reset
how to read this tab
guitar tuner
edit
Autoscroll
slow
fast
+/-
esc
set tempo
stop
Author
-------------------------------------------------------------------------------
                         BOOKS FROM BOXES - Maximo Park
-------------------------------------------------------------------------------
Tabbed by: gorrki1
Email: julianprott@web.de


[Intro]

e|----8--5----------5------|-----5------------5-----|-----3------------3-----|----5-----------8----6-|
B|----------6--8-------6---|8-------6----8-------6--|---5----5-------5----5--|6-------6--8--8----8---|
G|-7--------------7------7-|---7------7-----7------7|5---------5--5---------5|-----------------------|
D|-------------------------|------------------------|------------------------|-----------------------|
A|-------------------------|------------------------|------------------------|-----------------------|
E|-------------------------|------------------------|------------------------|-----------------------|


[Verse]

e|--------------------------|------------------------|------------------------|------------------------|
B|--------------------------|------------------------|------------------------|------------------------|
G|--------------5----5------|------------------------|------------------------|------------------------|
D|--3---3-------3----3------|--7---7------5---5------|--2---2------3---2------|--3---3------3---3------|
A|--1---1-------------------|--5---5------3---3------|--3---3------3---3------|--1---1------1---1------|
E|--------------------------|------------------------|------------------------|------------------------|

e|--------------------------|------------------------|------------------------|------------------------|
B|--------------------------|------------------------|------------------------|------------------------|
G|--------------5----5------|------------------------|------------------------|------------------------|
D|--3---3-------3----3------|--7---7------5---5------|--3---3------5---5------|--7---7------7---7------|
A|--1---1-------------------|--5---5------3---3------|--1---1------3---3------|--5---5------5---5------|
E|--------------------------|------------------------|------------------------|------------------------|

play this above 2 times, at the end guitar2 comes in:

e|-------------------------|-------------------------|-------------------------|----------------------|
B|-------------------------|-------------------------|-------------------------|----------6-----------|
G|----------0---5---3---0--|--2---2---2--2--3-0------|-----5----------------0--|-------------7--------|
D|-------------------------|-------------------------|-------3---5--5---5---5--|------7---------------|
A|--1---1------------------|-------------------------|--1----------------------|--5-------------------|
E|-------------------------|-------------------------|-------------------------|----------------------|


[Pre-Chorus]

e|--------------------------|--------------------------|
B|3-3-3-3-3-3-3-3-3-3---5-5-|6-6-6-6-6-6-6-6-6-6---5-5-|
G|3-3-3-3-3-3-3-3-3-3-x-5-5-|7-7-7-7-7-7-7-7-7-7-x-5-5-|
D|3-3-3-3-3-3-3-3-3-3-x-5-5-|7-7-7-7-7-7-7-7-7-7-x-5-5-|
A|1-1-1-1-1-1-1-1-1-1-x-3-3-|5-5-5-5-5-5-5-5-5-5-x-3-3-|
E|--------------------------|--------------------------|

e|--------------------------|----------------------------|
B|3-3-3-3-3-3-3-3-3-3---5-5-|6-6-6-6-6-6-6-6-6-6-6-6-6-6-|
G|3-3-3-3-3-3-3-3-3-3-x-5-5-|7-7-7-7-7-7-7-7-7-7-7-7-7-7-|
D|3-3-3-3-3-3-3-3-3-3-x-5-5-|7-7-7-7-7-7-7-7-7-7-7-7-7-7-|
A|1-1-1-1-1-1-1-1-1-1-x-3-3-|5-5-5-5-5-5-5-5-5-5-5-5-5-5-|
E|--------------------------|----------------------------|


[Chorus]

e|-----------------------------------------|--------------------------------|
B|-6-6-6-6-6-6-6-6-10-10-10-10-10-10-10-10-|--------------------------------|
G|-7-7-7-7-7-7-7-7-10-10-10-10-10-10-10-10-|7-7-7-7-7-7-7-7-7-7-7-7-7-7-7-7-|
D|-7-7-7-7-7-7-7-7-10-10-10-10-10-10-10-10-|8-8-8-8-8-8-8-8-8-8-8-8-8-8-8-8-|
A|-5-5-5-5-5-5-5-5--8--8--8--8--8--8--8--8-|8-8-8-8-8-8-8-8-8-8-8-8-8-8-8-8-|
E|-----------------------------------------|6-6-6-6-6-6-6-6-6-6-6-6-6-6-6-6-|

e|----------------------------------|----------------------------------|
B|--5-5-5-5-5-5-5-5-5-5-5-5-5-5-5-5-|--5-5-5-5-5-5-5-5-5-5-5-5-5-5-5-5-|
G|--5-5-5-5-5-5-5-5-5-5-5-5-5-5-5-5-|--5-5-5-5-5-5-5-5-5-5-5-5-5-5-5-5-|
D|--5-5-5-5-5-5-5-5-5-5-5-5-5-5-5-5-|--5-5-5-5-5-5-5-5-5-5-5-5-5-5-5-5-|
A|--3-3-3-3-3-3-3-3-3-3-3-3-3-3-3-3-|--3-3-3-3-3-3-3-3-3-3-3-3-3-3-3-3-|
E|----------------------------------|----------------------------------|


play the intro over the chorus, but like this: (little difference in the end)

e|---8--5----------5-----|-----5------------5-----|-----3------------3-----|-----3-----------8----6-|
B|---------6--8-------6--|8-------6----8-------6--|---5----5-------5----5--|---5----5----8--8----8--|
G|7--------------7------7|---7------7-----7------7|5---------5--5---------5|5---------5-------------|
D|-----------------------|------------------------|------------------------|------------------------|
A|-----------------------|------------------------|------------------------|------------------------|
E|-----------------------|------------------------|------------------------|------------------------|
the whole chorus 2 times


then repeat verse (but only 1 time), pre-chorus and chorus


[Bridge]

e|----0-----------0------0---3-2---2------|
B|-------------------------------3---3----|
G|--4----4/6--6/7----7\2---2-----------2--|  x4
D|----------------------------------------|
A|----------------------------------------|
E|----------------------------------------|


then play the chorus 3 times and the verse one time
that's it



************************************

| x  Dead note
| /  Slide up
| \  Slide down

************************************

            
            
Suggest correction
Creating personal tab
Creating personal tab
You can edit any tab online and save it as your Personal.

You can edit, replace or remove any tab part or add personal notes – all changes will be seen only by you.

Personal tabs can be accessed anytime from any device, even offline.
Learn more »
comments
print report bad tab
17 comments total. Showing first comments.
+1 reply
nico_re 10 Apr 24, 2007 12:20 PM

awesome song, nice tab

0 reply
vanwatson 52 May 17, 2007 12:37 PM

Love this song. Cheers for the tab. Perfect.
:)x

0 reply
slevin_89 21 Jun 27, 2007 04:29 AM

absolutely mint cheers

guest
You may want to rate the tab now too:
select rating
Wanna post a correction for this tab? Suggest correction