Oops, an error
Loading. Please wait.

Francés Limón tab

version 1
version 1

Whole song

9,188 views 15 this week
no commentswrite comment
1 2 3 4 5
x 5
add to favorites
×
Save as Personal and add changes to this tab that will be seen only by you. Learn more ›
×
You can save this tab as Personal to edit and correct it or add notes. All changes will be seen only by you. Learn more »
launch autoscroll
font size
0
reset
how to read this tab
guitar tuner
edit
Autoscroll
slow
fast
+/-
esc
set tempo
stop
Author
                           Frances Limon Vivo

Intro:

|---------------------------------------------------------------------------------------|
|o-------8-10-10/12~-12/13-10~-7-8-10-8/10~-10/12-8~---7-8-7h8~-8/10-7~-5-5/7~-5-7-8~--o|
|---9-11---------------------------------------------9----------------------------------|
|---------------------------------------------------------------------------------------|
|o-------------------------------------------------------------------------------------o|
|---------------------------------------------------------------------------------------|

   Am         B7        Em     Am        B7           Em 
     Todo tiene el color,        de tus ojos, cómo ves
   Am         B7       Em       c#m7b5    Am              B7               Em
     todo cambia, no así tu voz,      cuando me hablas en frances limón

              Am    B7    Em      c#m7b5
  En un barco de papel yo volvere
      F#M     BM    bm      em
  por ti mi amor frances limón
               Am     B7     Em     c#m7b5
  Las luces de la ciudad se apagaran
     F#M   BM    bm    Em
  te besaré, me besarás.

     Am       B7         Em     Am          B7         Em
       Me encanta tu actitud,    dios conserve tu salud
     Am      B7         Em            c#m7b5     am   B7         em
       sólo por mirarte comprendí       para qué yo vine aquí

              Am    B7    Em      c#m7b5
  En un barco de papel yo volvere
      F#M     BM    bm      em
  por ti mi amor frances limón
               Am     B7     Em     c#m7b5
  Las luces de la ciudad se apagaran
     F#M   BM    bm    Em
  te besaré, me besarás.

Solo:

------------------------------------------------------------------------------------|
------8h10-10/12~-12/13-10~-7-8-10-8/10~-10/12-8~---7-8-7h8~-8/10-7~-5-7~-5-7-8~----|
-9h11---------------------------------------------9---------------------------------|
------------------------------------------------------------------------------------|
------------------------------------------------------------------------------------|
------------------------------------------------------------------------------------|

--------------------|
------8-10-10/12~---|
-9h11---------------|
--------------------|
--------------------|
--------------------|

---------------------------------------------------14-17-15-14----15-14----14-14---------|
-13b15r13-12p10-/15-13-12\10-12-10h12~----------15-------------17-------17-------17b19~--|
---------------------------------------------16------------------------------------------|
---------------------------------------14h17---------------------------------------------|
-----------------------------------------------------------------------------------------|
-----------------------------------------------------------------------------------------|

----------------10\8\7~--7h8p7-------7---------------------------------------------|
-b19r17p15-17~-----------------10/12---8/10-10/12~--10p8-10/12~-12/15~-15/17~~~~~--|
-----------------------------------------------------------------------------------|
-----------------------------------------------------------------------------------|
-----------------------------------------------------------------------------------|
-----------------------------------------------------------------------------------|

     Am       B7         Em
       Me encanta tu actitud,
     Am       B7         Em
       de tus ojos, cómo ves

     Am       B7         Em       c#m7b5
       todo cambia, no así tu voz,
     Am       B7         Em
       cuando me hablas en frances limón

              Am    B7    Em      c#m7b5
  En un barco de papel yo volvere
      F#M     BM    bm      em
  por ti mi amor frances limón
               Am     B7     Em     c#m7b5
  Las luces de la ciudad se apagaran
     F#M   BM    bm    Em
  te besaré, me besarás.

Outro:

------------------------------------------------------------------------------------|
------8h10-10/12~-12/13-10~-7-8-10-8/10~-10/12-8~---7-8-7h8~-8/10-7~-5-7~-5-7-8~----|
-9h11---------------------------------------------9---------------------------------|
------------------------------------------------------------------------------------|
------------------------------------------------------------------------------------|
------------------------------------------------------------------------------------|

------------------------------------------------------------|
------------------------------------------------------------|
-----0-2-2h4~-4h5-2~---0-2~~-2/4----------------------------|
-2-4-----------------4-----------5~-2-4-5-4/5~-5/7-4~-2~----|
------------------------------------------------------------|
------------------------------------------------------------|


lick:

----------------------------|
------(12)-(7)--------------|
-(12)----------(7)-----(5)--|
-------------------(7)------|
----------------------------|
----------------------------|

            
            
Suggest correction
Creating personal tab
Creating personal tab
You can edit any tab online and save it as your Personal.

You can edit, replace or remove any tab part or add personal notes – all changes will be seen only by you.

Personal tabs can be accessed anytime from any device, even offline.
Learn more »
comments
print report bad tab
guest
You may want to rate the tab now too:
select rating
Wanna post a correction for this tab? Suggest correction