Oops, an error
Loading. Please wait.

Karaoke Plays tab

version 1
version 1

Whole song

2,083 views 1 this week
no commentswrite comment
1 2 3 4 5
1 last vote to show rating
add to favorites
×
Save as Personal and add changes to this tab that will be seen only by you. Learn more ›
×
You can save this tab as Personal to edit and correct it or add notes. All changes will be seen only by you. Learn more »
launch autoscroll
font size
0
reset
how to read this tab
guitar tuner
edit
Autoscroll
slow
fast
+/-
esc
set tempo
stop
Author

Tuning:normal

Intro
e|---------------------------------------------------------------------------|
B|---------------------------------------------------------------------------|
G|-------------------------------------1h2h4/6-4--1-1------------------------|
D|---1h2h4/6-4--1-1--------------------------------2-2--4141-----------------|
A|---------------2-2-4040--(X2)------0----------------------------(X)--------|
E|-0-------------------------------------------------------------------------|

Verse:
e|---------------------------------------------------------------------------|
B|--9----------6----------4--------------------------------------------------|
G|--9--(X8)----6--(X4)----4---(X4)-------------------------------------------|
D|--9----------6----------4--------------------------------------------------|
A|--7----------4----------2--------------------------------------------------|
E|---------------------------------------------------------------------------|

Pre Chorus:
e|--5---------5-----------this------------------------------------------------|
B|--5---------7-----------part-----7-7-7-7-8----------------------------------|
G|--6---------6--(X8)-----played-------------7-7-7-7-7p6-6-6-6-6-7/2-2-2-2----|
D|--7--(X8)---7-----------twice-----------------------------------------------|
A|--7---------5-----------then:-----------------------------------------------|
E|--5-------------------------------------------------------------------------|

Chorus:
e|-------------------------|
B|---10----------8---------|
G|---10--(X8)----9---(X8)--|
D|---10----------9---------|
A|---8-----------7---------|
E|-------------------------|

post Chorus: everything Palm Muted. PLayed Twice then back to Verse
e|-----------------------------|
B|-----------------------------|
G|-----------------------------|
D|--9--(X8)--6--(X4)--4--------|
A|--7--------4--------2--(X4)--|
E|-----------------------------|

thats it for Now. ill try to tab the bridge part another time but right now im to tierd.
please comment.

| /  slide up
| \  slide down
| h  hammer-on
| p  pull-off
| ~  vibrato
| +  harmonic
| x  Mute note
===============================================================================

            
            
Suggest correction
Creating personal tab
Creating personal tab
You can edit any tab online and save it as your Personal.

You can edit, replace or remove any tab part or add personal notes – all changes will be seen only by you.

Personal tabs can be accessed anytime from any device, even offline.
Learn more »
Give kudos to tab author, rate the tab!
1 2 3 4 5
comments
print report bad tab
guest
You may want to rate the tab now too:
select rating
Wanna post a correction for this tab? Suggest correction