Oops, an error
Loading. Please wait.

Dog Days chords

68 views 1 this week
no commentswrite comment
1 2 3 4 5
1 last vote to show rating
add to favorites
×
Save as Personal and add changes to this tab that will be seen only by you. Learn more ›
×
You can save this tab as Personal to edit and correct it or add notes. All changes will be seen only by you. Learn more »
launch autoscroll
font size
0
reset
transpose
0
reset
simplify chords
display chords
guitar tuner
edit
Autoscroll
slow
fast
+/-
esc
set tempo
stop
Author
Strumming
There is no strumming pattern for this song yet. and get +5 IQ
DOG DAYS

album version - GOLDEN OCEAN
____________________________________
____________________________________

____________________________________
____________________________________

fig.1:  
e------------------------------------------------------------------------------------
b------------------------------------------------------------------------------------
g------------------------------------------------------------------------------------
d--------------------------------------------5h7-7-7--7------------------------------
a-------------7/5-5-5-0------------7/5-5-5-0------------7/5-5-5-0--------------------
e-5h7-7-7---7-----------5h7-7-7--7--------------------------------5h7-7-7--3-3p0-0-0-

fig.2:                                   
e----------------------------------------------
b----------------------------------------------
g----------------------------------------------
d----------------------------------------------
a-5h7-7-7--7-5h7-7-7--7-5h7-7-7--7--5h7-7-7--7-
e----------------------------------------------


chords:
    D        C         Em      G       A        B      
e---10--- ---10---- ---0--- ------- -------- ------- 
b---10--- ---10---- ---0--- ------- -------- -------
g---11--- ---9----- ---0--- ---4--- ---6---- ---8--- 
d---12--- ---10---- ---2--- ---5--- ---7---- ---9---
a---12--- ---10---- ---2--- ---5--- ---7---- ---9--- 
e---10--- ---8----- ---0--- ---3--- ---5---- ---7--- 
_____________________________________________________

fig.1 (x2)
fig.2
D  C
 
fig.2                 D                 C
  Rats scatter after waves on the dirty beach
fig.2               D       C           
  You're seriously losing me
fig.2                      D              C
  A shiny object caught my eye, of course
fig.2                 
These dog days 
        D                       C
Always leave me with a stomach ache
Em
These dog days 
       G                       A
Always leave me with a stomach ache
_________________________________________
Em G A C B
Em G A C B
Em G A C B
Em G A 
_________________________________________
 
fig.2
D  C

fig.2                   D        C
  One dip in a well and I'm done in
fig.2        D    C
  Coffee and vitamins
fig.2          D      C
  Breakfast of champions
fig.2                           D            C
  Don't touch me, I don't know where you've been
Em                              G             A
  Don't touch me, I don't know where you've been
______________________________________________________
Em  G  A  C  B
Em  G  A  C  B
Em  G  A 
______________________________________________________
 
fig.1 (x2)
fig.2
D  C

fig.2               D                  C
  Simultaneously attracted and repelled
fig.2                       D               C
  If you don't know by now, I'll never tell
fig.2                 D             C
  I wake up a ton of unkissed guilt
fig.2                            D                    C
  Just keep telling me "this is life, we didn't miss it"
Em                               G                    A
  Just keep telling me "this is life, we didn't miss it"
____________________________________________________________

Outro:

chords:
    E5     F5     D5    B5     A5
e ------ ------ ------ ----- -----
b ------ ------ ------ ----- -----
g ------ ------ ------ ----- -----
d --14-- --15-- --12-- --9-- --7--
a --14-- --15-- --12-- --9-- --7--
e --12-- --13-- --10-- --7-- --5--

E5 F5 E5 D5 B5 (X24)
A5 B5 (X3)
Em

            
            
Suggest correction
Creating personal tab
Creating personal tab
You can edit any tab online and save it as your Personal.

You can edit, replace or remove any tab part or add personal notes – all changes will be seen only by you.

Personal tabs can be accessed anytime from any device, even offline.
Learn more »
Give kudos to tab author, rate the tab!
1 2 3 4 5
comments
print report bad tab
guest
You may want to rate the tab now too:
select rating
Wanna post a correction for this tab? Suggest correction