Oops, an error
Loading. Please wait.

Vena Cava chords

100 views 1 this week
no commentswrite comment
1 2 3 4 5
2 more votes to show rating
add to favorites
×
Save as Personal and add changes to this tab that will be seen only by you. Learn more ›
×
You can save this tab as Personal to edit and correct it or add notes. All changes will be seen only by you. Learn more »
launch autoscroll
font size
0
reset
transpose
0
reset
simplify chords
display chords
guitar tuner
edit
Autoscroll
slow
fast
+/-
esc
set tempo
stop
Author
Strumming
There is no strumming pattern for this song yet. and get +5 IQ
VENA CAVA

album version - FREE MUSIC
____________________________________
____________________________________

____________________________________
____________________________________
fig.1:  
e-------------------
b-------------------
g-------------------
d-----3-0-1p0-------
a-------------1-1-3-
e-1-1---------------


chords:
   F#5      G#5      F5     A#5      G5
e-------- ------- ------- ------- --------
b-------- ------- ------- ------- --------
g-------- ------- ------- ------- -------- 
d---4---- ---6--- ---3--- ---8--- ---5---- 
a---4---- ---6--- ---3--- ---8--- ---5---- 
e---2---- ---4--- ---1--- ---6--- ---3----
__________________________________________

fig.1 (x4) + F#5  G#5
fig.1 (x2)
__________________________________________

fig.1         fig.1                 fig.1   fig.1
Pill popping, you drink everything 
fig.1      fig.1            fig.1   fig.1  
You keep a goldfish in your sink 
F#5        G#5
  So, this happens 
       fig.1    fig.1 
No, it doesn't 
F#5          G#5
  Yeah, this happens
__________________________________________

lead.1: 
e-------------------
b-------------------
g-8h10-10-10------8-
d------------8h10---
a-------------------
e-------------------
 
         fig.1 + lead.1 fig.1 + lead.1
Well, it shouldn't 
fig.1 + lead.1  fig.1 + lead.1 fig.1 + lead.1 fig.1 + lead.1
  The smell of fry is in the air 
fig.1 + lead.1  fig.1 + lead.1  fig.1 + lead.1 fig.1 + lead.1
And burning sugar in your hair 
F#5        G#5
  So, this happens 
        fig.1 + lead.1 fig.1 + lead.1
No, it doesn't 
F#5          G#5
  Yeah, this happens 
          fig.1 + lead.1 fig.1 + lead.1
Well, it shouldn't 
_________________________________________

F5 A#5 G#5
F5 G#5 G5 F#5

F5            A#5    G#5
Race you to a heart attack 
         F5                A#5  G#5
Rip off your vice, make it mine 
F5               A#5      G#5
Wait for it, you wait for it 
              F5                 A#5  G#5
But you don't like it, you don't like it 
________________________________________

lead.1 + lead.2

lead.2: 
e--------------------------------------------------------------------------------------------
b--------------------------------------------------------------------------------------------
g-10-8-<8>-10-8-8-10------(8)/14-12-12-10-8-8h10-8-8-10-8-8-10----------------9-------7/8-10-
d--------------------8-10--------------------------------------10-<10>-<10>-8--8-7/8---------
a--------------------------------------------------------------------------------------------
e--------------------------------------------------------------------------------------------
________________________________________

fig.1    fig.1              fig.1  fig.1  
  So you won't get out of bed 
fig.1  fig.1         fig.1  fig.1  
 I can go it alone today 
F#5           G#5
 It doesn't bug me 
         fig.1 + lead.1 fig.1 + lead.1
No, it doesn't 
F#5           G#5
 It doesn't bug me 
           fig.1 + lead.1 fig.1 + lead.1
Well, it shouldn't 
_________________________

F5 A#5 G#5
F5 G#5 G5 F#5
_________________________

F5            A#5    G#5
Race you to a heart attack 
         F5                 A#5  G#5
Rip off your vice, make it mine 
F5               A#5      G#5
Wait for it, you wait for it 
               F5                 A#5 G#5
But you don't like it, you don't like it 
____________________________________________

F5 A#5  G#5
F5 G#5  G5 F#5

F5         A#5 G#5
Vena, vena cava 
   F5               A#5 G#5  fig.1 fig.1
We come drained and whining 
fig.1 fig.1  fig.1
Vena,   vena cava 
fig.1   fig.1    A#5 G#5
We come gray and hopeful

lead.3: 
e-13-13-13-13p11-----------------------------------13-13-13-13-13-13/-----------
b-------------------------------------------------------------------------------
g----------------10-10-10-(8)/10-10-10/15-15-15\13--------------------/13-12-11-
d-------------------------------------------------------------------------------
a-------------------------------------------------------------------------------
e-------------------------------------------------------------------------------

e-13-13-13-13-13-11h13-13-----------------------------------------
b-----------------------------------------------------------------
g--------------------------15-15-13---------------------15/13-13--
d------------------------------------15-15-15-15p11---------------
a-----------------------------------------------------------------
e---------------------------------------------------13------------

e---------------------------------------------------------
b------------------10-------------------------------------
g-10-8-8-10-8-10-8----10-8-8h10p8h10p8--------------------
d--------------------------------------10-8-6h8p6h8p6h8p7-
a---------------------------------------------------------
e---------------------------------------------------------  

            
            
Suggest correction
Creating personal tab
Creating personal tab
You can edit any tab online and save it as your Personal.

You can edit, replace or remove any tab part or add personal notes – all changes will be seen only by you.

Personal tabs can be accessed anytime from any device, even offline.
Learn more »
Give kudos to tab author, rate the tab!
1 2 3 4 5
comments
print report bad tab
guest
You may want to rate the tab now too:
select rating
Wanna post a correction for this tab? Suggest correction