Oops, an error
Loading. Please wait.

Hårdrock intro tab

3,913 views 3 this week
6 commentsread comments
1 2 3 4 5
x 8
add to favorites
×
Save as Personal and add changes to this tab that will be seen only by you. Learn more ›
×
You can save this tab as Personal to edit and correct it or add notes. All changes will be seen only by you. Learn more »
launch autoscroll
font size
0
reset
how to read this tab
guitar tuner
edit
Autoscroll
slow
fast
+/-
esc
set tempo
stop
Author
Difficulty
Song:Hårdrock
By: Lillasyster
Tabbed by:FlodaConfused

This is a really easy and good song, its also my first online tab so its far from 
perfect. 
To think about when you are playing this song is that you keep hitting the strings through
out the intro (especially on the muted parts). 


E|--------------------------------------------------------------------------------------------|
B|--------------------------------------------------------------------------------------------|
G|------3---4---5-5---------5---7---9-9---------12---11--10--------10--8---5-5----------------|
D|-x-x--3---4---5-5--x-x-x--5---7---9-9--x-x-x--12---11--10-x-x-x--10--8---5-5----------------|
A|-x-x--1---2---3-3--x-x-x--3---5---7-7--x-x-x--10---9---8--x-x-x--8---6---3-3----------------|
E|-x-x---------------x-x-x---------------x-x-x--------------x-x-x-----------------------------|


This is just the intro and maybe if somebody wants me to i'll tab the whole song.
Enjoy ;)

            
            
Suggest correction
Creating personal tab
Creating personal tab
You can edit any tab online and save it as your Personal.

You can edit, replace or remove any tab part or add personal notes – all changes will be seen only by you.

Personal tabs can be accessed anytime from any device, even offline.
Learn more »
comments
print report bad tab
6 comments total. Showing first comments.
0 reply
grille 20 Aug 25, 2007 01:26 PM

lilla syter FTW :D

+1 reply
Vanhanen 10 Oct 10, 2007 01:19 PM

E|--------------------------------------------------------------------------------------------|
B|--------------------------------------------------------------------------------------------|
G|------3---4---5-5---------5---7---8-8---------12---11--10--------10--8---5-5----------------|
D|-x-x--3---4---5-5--x-x-x--5---7---8-8--x-x-x--12---11--10-x-x-x--10--8---5-5----------------|
A|-x-x--1---2---3-3--x-x-x--3---5---6-6--x-x-x--10---9---8--x-x-x--8---6---3-3----------------|
E|-x-x---------------x-x-x---------------x-x-x--------------x-x-x-----------------------------|


Så ska den väll ändå se ut? Annars skit snyggt ;)

Lillasyster !!!

0 reply
tabfr3ak 10 Oct 25, 2007 11:43 AM

Tabba hela sången!!! och jäkligt gärna några fler! :D Tack på förhand...

guest
You may want to rate the tab now too:
select rating
Wanna post a correction for this tab? Suggest correction