Oops, an error
Loading. Please wait.

Bomberpilot Bass Bass Tab

7,224 views 9 this week
no commentswrite comment
1 2 3 4 5
accurate
x 2
add to favorites
launch autoscroll
font size
0
reset
guitar tuner
Tab Pro tools
  • play this tab
  • loop segment
  • change instrument
  • show fretboard
  • metronome
Autoscroll
slow
fast
+/-
esc
set tempo
stop
Difficulty
intermediate
BOMBERPILOT (Böhse Onkelz)

Intro

|--------|----------------------|--------|------------------|
|--------|----------------------|--------|------------------|
|--------|----------------------|--------|------------------|
|--------|------5/7-5/7-5/7-----|--------|-----------0-1-2--|

Verse

|-----------------------|-------------------------|
|-----------------------|-------------------------|
|----3-3-3-3-3-3-3...---|--3-3-3-3-3\-------------|
|-----------------------|------------------0-1-2--|
Chor

|-------|------|-------|-------|--------|-----|-------|--------|
|-------|------|-------|-------|--------|-----|-------|--------|
|-------|------|----3--|-------|--------|-----|----3--|--------|
|----5--|---1--|-------|----0--|----5---|---1-|-------|---0----|

Interlude

|----3--0-3-0-3-----|------------------------|
|-------------------|------------------------|
|-------------------|------------------------|
|-------------------|--3-5-5-5-5-5-5-5-------| 
                           |...P.M...|
(Interlude 4 times)

Solo = Verse

Have fun with it

Tabbed by t|\|eC()UNT
comments
We did not receive enough feedback on this tab! Please rate:
print report bad tab
1 2 3 4 5
I want to post or [tab]
guest
You may want to rate the tab now too:
select rating
Please do not post tabs as comments. Select "correction" instead!