Oops, an error
Loading. Please wait.

Sole Survivor bass

2,838 views 30 this week
1 commentread comment
1 2 3 4 5
x 4
add to favorites
×
Save as Personal and add changes to this tab that will be seen only by you. Learn more ›
×
You can save this tab as Personal to edit and correct it or add notes. All changes will be seen only by you. Learn more »
launch autoscroll
font size
0
reset
guitar tuner
edit
Autoscroll
slow
fast
+/-
esc
set tempo
stop
Author
Difficulty
-------------------------------------------------------------------------------
			     SOLE SURVIVOR - Blue Öyster Cult
-------------------------------------------------------------------------------

Tabbed By : Erik
e-mail: Erik_Hanna@hotmail.com

Tuning: Standard

Intro:

G|---------------------------------------------------------------------------|
D|--------2-0----------------2-0----------------2-0----------------2-0-------|
A|--0-2-3---------3-2--0-2-3---------3-2--0-2-3---------3-2--0-2-3-----------|
E|------------3-0----------------3-0----------------3-0-----------------3-0--|

Verse:

G|---------------------------------------------------------------------------|
D|---------------------------------------------------------------------------|
A|---------------------------------------------------------------------------|
E|--1--11-1-0--00-0-1--11-1-0--00-0-1--11-1-0--00-0-1--11-1-0--00-0----------|

Chorus:

G|---------------------------------------------------------------------------|
D|---------------------------------------------------------------------------|
A|---------------------------------------------------------------------------|
E|--55--11--33--0-3--55--11--33--0-3--55--11--33--0-3--55--11--33--0---------|

Order: (Listen to the song for proper timing)
Intro
Verse
Chorus
Verse
Chorus
Intro (Repeat as neccessary)
Verse
Chorus (Repeat till the end)


| /  slide up
| \  slide down
| h  hammer-on
| p  pull-off
| ~  vibrato
| +  harmonic
| x  Mute note
===============================================================================

            
            
Suggest correction
Creating personal tab
Creating personal tab
You can edit any tab online and save it as your Personal.

You can edit, replace or remove any tab part or add personal notes – all changes will be seen only by you.

Personal tabs can be accessed anytime from any device, even offline.
Learn more »
comments
print report bad tab
1 comment total.
0 reply
bassist_E1337 81 Jul 13, 2009 11:36 AM

this is great, thx for the tab

guest
You may want to rate the tab now too:
select rating
Wanna post a correction for this tab? Suggest correction