Oops, an error
Loading. Please wait.

Torn On The Platform tab

version 2
version 2

Whole song

6,401 views 1 this week
6 commentsread comments
1 2 3 4 5
x 5
add to favorites
×
Save as Personal and add changes to this tab that will be seen only by you. Learn more ›
×
You can save this tab as Personal to edit and correct it or add notes. All changes will be seen only by you. Learn more »
launch autoscroll
font size
0
reset
how to read this tab
guitar tuner
edit
Autoscroll
slow
fast
+/-
esc
set tempo
stop
Author
i dont know if this is completly correct but it sound good
p.s. in this song when you play the note you lift your fingers off and it stops it. (' next to it)

intro: stum repeatively the first note below fist then do below
e|-5----------------4---------------5-------------------7----------12-|
b|-5----------------5---------------7-------------------9----12p9-----|
g|-6----------------6---------------7-------------------9---------11--|
d|-7----------------6---------------7-------------------9-------------|
a|-7----------------4---------------5-------------------7-------------|
E|-5------------------------------------------------------------------|
   once more just before im leaving torn on the platform

e|-5----------------4---------------5-------------------7-------------|
b|-5----------------5---------------7-------------------9-------------|
g|-6----------------6---------------7-------------------9-------------|
d|-7----------------6---------------7-------------------9-------------|
a|-7----------------4---------------5-------------------7-------------|
E|-5------------------------------------------------------------------|
   once more just before im leaving torn on the platform
(if there is guitaring in this bit it is faint and i dont know it)

coz i miss you, and i love you, and i know this is over for now

coz i miss you ooohoh how i miss you, your not my girl your my town

pre verse   (you can either play the mutes or play them as the notes before)
e|-5'-5'-x-x--4'-4'-x-x--5'-5'-x-x--7'-7'-x-x--|
b|-5'-5'-x-x--5'-5'-x-x--7'-7'-x-x--9'-9'-x-x--|
g|-6'-6'-x-x--6'-6'-x-x--7'-7'-x-x--9'-9'-x-x--|
d|-7'-7'-x-x--6'-6'-x-x--7'-7'-x-x--9'-9'-x-x--|
a|-7'-7'-x-x--4'-4'-x-x--5'-5'-x-x--7'-7'-x-x--|
E|-5'-5'-x-x-----------------------------------|
                                    <--quick up and down strumming-->
e|-5'-5'-x-x--4'-4'-x-x--5'-5'-x-x--7-7-7-7-7-7-7-7-7-7-7-7-7-7-7-7--|
b|-5'-5'-x-x--5'-5'-x-x--7'-7'-x-x--9-9-9-9-9-9-9-9-1010101010101010-|
g|-6'-6'-x-x--6'-6'-x-x--7'-7'-x-x--9-9-9-9-9-9-9-9-9-9-9-9-9-9-9-9--|
d|-7'-7'-x-x--6'-6'-x-x--7'-7'-x-x--9-9-9-9-9-9-9-9-9-9-9-9-9-9-9-9--|
a|-7'-7'-x-x--4'-4'-x-x--5'-5'-x-x--7-7-7-7-7-7-7-7-7-7-7-7-7-7-7-7--|
E|-5'-5'-x-x---------------------------------------------------------|

verse 
e|---------------------------------------------|
b|----------------------5'--5'--5'--5'---------|
g|---6'--6'--6'--6'-----6'--6'--6'--6'---------|
d|---7'--7'--7'--7'-----6'--6'--6'--6'---------|
a|---7'--7'--7'--7'----4-'-4-'-4-'-4-'---------|
E|--5-'-5-'-5-'-5-'----------------------------|
            a weekend away     the city to-
e|------------------------------7-7-7-7-7------|
b|---7'--7'--7'--7'-----9'--9'--1010101010-----|
g|---7'--7'--7'--7'-----9'--9'-----------------|
d|---7'--7'--7'--7'-----9'--9'-----------------|
a|--5-'-5-'-5-'-5-'----7-'-7-'-----------------|
E|---------------------------------------------|
   -day    dont want the big smoke to leave me behind

e|---------------------------------------------|
b|---------------------5'--5'--5'--5'----------|
g|---6'--6'--6'--6'----6'--6'--6'--6'----------|
d|---7'--7'--7'--7'----6'--6'--6'--6'----------|
a|---7'--7'--7'--7'---4-'-4-'-4-'-4-'----------|
E|--5-'-5-'-5-'-5-'----------------------------|
       train leaves at 2       platform 3 water-

e|-------------------7--7--7-7--7---7----7-----7--7----7---|
b|---7'--7'--7'--7'--9--9--9-9--9---9----9-----9--9----9---|
g|---7'--7'--7'--7'--9--9--9-9--9---9----9-----9--9----9---|
d|---7'--7'--7'--7'--9--9--9-9--9---9----9-----9--9----9---|
a|--5-'-5-'-5-'-5-'--7--7--7-7--7---7----7-----7--7----7---|
E|---------------------------------------------------------|
   -loo              fifty p to the chap makes me feel kind  oh

e|---------------------------------------------|
b|----------------------5'--5'--5'--5'---------|
g|---6'--6'--6'--6'-----6'--6'--6'--6'---------|
d|---7'--7'--7'--7'-----6'--6'--6'--6'---------|
a|---7'--7'--7'--7'----4-'-4-'-4-'-4-'---------|
E|--5-'-5-'-5-'-5-'----------------------------|
          gets a good seat    with the wind and my 

e|------------------------------7-7-7-7-7------|
b|---7'--7'--7'--7'-----9'--9'--1010101010-----|
g|---7'--7'--7'--7'-----9'--9'-----------------|
d|---7'--7'--7'--7'-----9'--9'-----------------|
a|--5-'-5-'-5-'-5-'----7-'-7-'-----------------|
E|---------------------------------------------|
   feet       are up on the one in front everyone stares

e|---------------------------------------------|
b|----------------------5'--5'--5'--5'---------|
g|---6'--6'--6'--6'-----6'--6'--6'--6'---------|
d|---7'--7'--7'--7'-----6'--6'--6'--6'---------|
a|---7'--7'--7'--7'----4-'-4-'-4-'-4-'---------|
E|--5-'-5-'-5-'-5-'----------------------------|
     but why do they care   like theres feelings in 

e|-------------------7-----7--7---7--7--7--7--7-7---7---|
b|---7'--7'--7'--7'--9-----9--9---9--9--9--9--9-9---9---|
g|---7'--7'--7'--7'--9-----9--9---9--9--9--9--9-9---9---|
d|---7'--7'--7'--7'--9-----9--9---9--9--9--9--9-9---9---|
a|--5-'-5-'-5-'-5-'--7-----7--7---7--7--7--7--7-7---7---|
E|------------------------------------------------------|
    chairs         stuffed up for hours until i get there  coz your

bridge

e|--5'-5'-x-x--5'-5'-x-x----4'-4'-x-x--4'-4'-x-x--------|
b|--5'-5'-x-x--5'-5'-x-x----5'-5'-x-x--5'-5'-x-x--------|
g|--6'-6'-x-x--6'-6'-x-x----6'-6'-x-x--6'-6'-x-x--------|
d|--7'-7'-x-x--7'-7'-x-x----6'-6'-x-x--6'-6'-x-x--------|
a|--7'-7'-x-x--7'-7'-x-x----4'-4'-x-x--4'-4'-x-x--------|
E|--5'-5'-x-x--5'-5'-x-x--------------------------------|
   eyes  eyes  eyes are not dry   dry   dry  from the 

e|--5'-5'-x-x--5'-5'-x-x-----7'-7'-x-x-------7-7-7-7-7-----------|
b|--7'-7'-x-x--7'-7'-x-x-----9'-9'-x-x-------1010101010----------|
g|--7'-7'-x-x--7'-7'-x-x-----9'-9'-x-x---------------------------|
d|--7'-7'-x-x--7'-7'-x-x-----9'-9'-x-x---------------------------|
a|--5'-5'-x-x--5'-5'-x-x-----7'-7'-x-x---------------------------|
E|---------------------------------------------------------------|
   lies  lies  lies  that in a few minutes this train will be gone

e|--5'-5'-x-x--5'-5'-x-x----4'-4'-x-x--4'-4'-x-x--------|
b|--5'-5'-x-x--5'-5'-x-x----5'-5'-x-x--5'-5'-x-x--------|
g|--6'-6'-x-x--6'-6'-x-x----6'-6'-x-x--6'-6'-x-x--------|
d|--7'-7'-x-x--7'-7'-x-x----6'-6'-x-x--6'-6'-x-x--------|
a|--7'-7'-x-x--7'-7'-x-x----4'-4'-x-x--4'-4'-x-x--------|
E|--5'-5'-x-x--5'-5'-x-x--------------------------------|
    sighs sighs sighs city  flys  flys  flys wonder

e|--5'-5'-x-x--5'-5'-x-x--77--7---7----7--7-----7---7--7----7----|
b|--7'-7'-x-x--7'-7'-x-x--99--9---9----9--9-----9---9--9----9----|
g|--7'-7'-x-x--7'-7'-x-x--99--9---9----9--9-----9---9--9----9----|
d|--7'-7'-x-x--7'-7'-x-x--99--9---9----9--9-----9---9--9----9----|
a|--5'-5'-x-x--5'-5'-x-x--77--7---7----7--7-----7---7--7----7----|
E|---------------------------------------------------------------|
    why   why  why would  any one want to leave were i come from   im

chorus

e|-5'-5'-x-x--4'-4'-x-x--5'-5'-x-x--7'-7'-x-x--|
b|-5'-5'-x-x--5'-5'-x-x--7'-7'-x-x--9'-9'-x-x--|
g|-6'-6'-x-x--6'-6'-x-x--7'-7'-x-x--9'-9'-x-x--|
d|-7'-7'-x-x--6'-6'-x-x--7'-7'-x-x--9'-9'-x-x--|
a|-7'-7'-x-x--4'-4'-x-x--5'-5'-x-x--7'-7'-x-x--|
E|-5'-5'-x-x-----------------------------------|
   torn on    the plat-  form       form           x2

e|-5'-5'-x-x--4'-4'-x-x--5'-5'-x-x--7'-7'-x-x--|
b|-5'-5'-x-x--5'-5'-x-x--7'-7'-x-x--9'-9'-x-x--|
g|-6'-6'-x-x--6'-6'-x-x--7'-7'-x-x--9'-9'-x-x--|
d|-7'-7'-x-x--6'-6'-x-x--7'-7'-x-x--9'-9'-x-x--|
a|-7'-7'-x-x--4'-4'-x-x--5'-5'-x-x--7'-7'-x-x--|
E|-5'-5'-x-x-----------------------------------|
   torn on    the plat-  form       form        

e|-7-----5----4----2---|
b|-9-----7----5----3---|
g|-9-----7----6----4---|
d|-9-----7----6----4---|
a|-7-----5----4----2---|
E|---------------------|
   woh   oh   oh   oh     x 4

                                    <--quick up and down strumming-->
e|-5'-5'-x-x--4'-4'-x-x--5'-5'-x-x--7-7-7-7-7-7-7-7-7-7-7-7-7-7-7-7--|
b|-5'-5'-x-x--5'-5'-x-x--7'-7'-x-x--9-9-9-9-9-9-9-9-1010101010101010-|
g|-6'-6'-x-x--6'-6'-x-x--7'-7'-x-x--9-9-9-9-9-9-9-9-9-9-9-9-9-9-9-9--|
d|-7'-7'-x-x--6'-6'-x-x--7'-7'-x-x--9-9-9-9-9-9-9-9-9-9-9-9-9-9-9-9--|
a|-7'-7'-x-x--4'-4'-x-x--5'-5'-x-x--7-7-7-7-7-7-7-7-7-7-7-7-7-7-7-7--|
E|-5'-5'-x-x---------------------------------------------------------|
   oh         oh          oh         oh

verse with these words

its 1 58 wish i had been late
and missin the train aint giving them an excuse    oh
    (one strum let ring until--------------here)
and what is the use of less slack than a noose
do what i say though what should i choose

bridge

chorus

other bit
e|--5-------------5---------------------5'-5'-x-x--4'-4'-x-x--|
b|--7-------------6---------------------5'-5'-x-x--5'-5'-x-x--|
g|--7-------------7---------------------6'-6'-x-x--6'-6'-x-x--|
d|--7-------------7---------------------7'-7'-x-x--6'-6'-x-x--|
a|--5-------------5---------------------7'-7'-x-x--4'-4'-x-x--|
E|--------------------------------------5'-5'-x-x-------------|
    in a film the motion starts to slow

e|-----5---------------5--------------------5'-5'-x-x--4'-4'-x-x--|
b|-----7---------------6--------------------5'-5'-x-x--5'-5'-x-x--|
g|-----7---------------7--------------------6'-6'-x-x--6'-6'-x-x--|
d|-----7---------------7--------------------7'-7'-x-x--6'-6'-x-x--|
a|-----5---------------5--------------------7'-7'-x-x--4'-4'-x-x--|
E|------------------------------------------5'-5'-x-x-------------|
as the beeping carrige doors begin to close

e|-----5--------5--------------------5'-5'-x-x--4'-4'-x-x--|
b|-----7--------6--------------------5'-5'-x-x--5'-5'-x-x--|
g|-----7--------7--------------------6'-6'-x-x--6'-6'-x-x--|
d|-----7--------7--------------------7'-7'-x-x--6'-6'-x-x--|
a|-----5--------5--------------------7'-7'-x-x--4'-4'-x-x--|
E|-----------------------------------5'-5'-x-x-------------|
       momentarely im standing froze

e|--7'-7'-x-x-7'-7'-x-x--7'-7'-x-x--7'-7'-x-x------------|
b|--9'-9'-x-x-9'-9'-x-x-10'10'-x-x-10'10'-x-x------------|
g|--9'-9'-x-x-9'-9'-x-x--9'-9'-x-x--9'-9'-x-x------------|
d|--9'-9'-x-x-9'-9'-x-x--9'-9'-x-x--9'-9'-x-x------------|
a|--7'-7'-x-x-7'-7'-x-x--7'-7'-x-x--7'-7'-x-x------------|
E|-------------------------------------------------------|
  then i jump between the gap  and on the platform flat

chorus

finish by strumming
e|---5---|
b|---5---|
g|---6---|
d|---7---|
a|---7---|
E|---5---|
Suggest correction
Creating personal tab
Creating personal tab
You can edit any tab online and save it as your Personal.

You can edit, replace or remove any tab part or add personal notes – all changes will be seen only by you.

Personal tabs can be accessed anytime from any device, even offline.
Learn more »
comments
print report bad tab
6 comments total. Showing first comments.
0 reply
atrayhorn 76 Jul 19, 2007 10:52 AM

this is the 'bedroom recording' version

0 reply
atrayhorn 76 Aug 08, 2007 03:22 AM

my mistake the lyrics are as i realise lise lise
not from the lies lies lies

0 reply
robsuj 92 Jul 24, 2009 04:38 AM

BRILLIAT TAB!

guest
You may want to rate the tab now too:
select rating
Wanna post a correction for this tab? Suggest correction