Oops, an error
Loading. Please wait.

Shout At The Devil tab

version 1
version 1

Whole song

Interactive

Video

238,322 views 153 this week
73 commentsread comments
1 2 3 4 5
x 82
add to favorites
×
Save as Personal and add changes to this tab that will be seen only by you. Learn more ›
×
You can save this tab as Personal to edit and correct it or add notes. All changes will be seen only by you. Learn more »
launch autoscroll
font size
0
reset
how to read this tab
guitar tuner
backing track
0:00
0:00
edit
Autoscroll
slow
fast
+/-
esc
set tempo
stop
Shout At The Devil 
Motley Crue 

Dropped D tuning: DGCFAD


[Intro] 

(hold then slide)

E|-------------------| 
B|-------------------| 
G|-----5/-------7/---| 
D|-----5/-------7/---| 
A|-0-0------0-0------| 
D|-------------------|(x2) 

E|-------------------------------------| 
B|-------------------------------------| 
G|-----5-------7-------5-----------7-5-| 
D|-----5-------7-------5------5--------| 
A|-0-0-----0-0----0-0-----5-7---7------| 
D|-------------------------------------| 

E|-------------------------------------| 
B|-------------------------------------| 
G|-----5--------7------5-----------7-5-| 
D|-----5--------7------5------5------5-| 
A|-0-0----0-0-----0-0-----5-7---7------| 
D|-------------------------------------| 

[Intro Lead]

E|-----------------------------|
B|-11~--10~--8~---11~--13~--8~-| 
G|-----------------------------| 
D|-----------------------------|
A|-----------------------------|
D|-----------------------------|

(Gtr 2)

E|------------------------------------| 
B|------------------------------------| 
G|-----5------7-------5-----------7-5-| 
D|-----5------7-------5------5------5-| 
A|-0-0----0-0-----0-0----5-7---7------| 
D|------------------------------------| 

E|-------------------------------------| 
B|-------------------------------------| 
G|-----5------7-------5--------------5-| 
D|-----5------7-------5------5-------5-| 
A|-0-0-----0-0----0-0----5-7---5-0-3---| 
D|-------------------------------------| 


[Verse]                   

(on 4th play this)
E|----------------|----------------------| 
B|----------------|----------------------| 
G|-7-5-2--5-7-5-2-|-7-5-2--5-7-2-7-7-5-2-| 
D|-7-5-2--5-7-5-2-|-7-5-2--5-7-2-7-7-5-2-| 
A|-5-3-0--3-5-3-0-|-5-3-0--3-5-0-5-5-3-0-| 
D|----------------|----------------------|(x4)


[Chorus]

E|-------------------------------------|
B|-------------------------------------| 
G|-----5------7-------5------------7-5-| 
D|-----5------7-------5-------5------5-| 
A|-0-0----0-0-----0-0-----5-7---7------| 
D|-------------------------------------| 

E|-------------------------------------| 
B|-------------------------------------|
G|-----5-------7------5------------7-5-|
D|-----5-------7------5-------5--------| 
A|-0-0-----0-0----0-0-----5-7---7------| 
D|-------------------------------------| 


[Verse]

E|----------------| 
B|----------------| 
G|-7-5-2--5-7-5-2-| 
D|-7-5-2--5-7-5-2-| 
A|-5-3-0--3-5-3-0-| 
D|----------------|(x4)

(on 4th play this)

E|----------------------------------| 
B|------------------------------3---| 
G|-7-5-2--5-7-2-2-5-5---5-------0---| 
D|-7-5-2--5-7-2-2-5-5---5-----------| 
A|-5-3-0--3-5-0-0-3-3-3---3-2-2---2-| 
D|----------------------------------|
 

[Chorus]

E|-------------------------------------|
B|-------------------------------------| 
G|-----5------7-------5------------7-5-| 
D|-----5------7-------5-------5------5-| 
A|-0-0----0-0-----0-0-----5-7---7------| 
D|-------------------------------------| 

E|------------------------------------| 
B|------------------------------------| 
G|-----5------7-------5-----------7-5-| 
D|-----5------7-------5-------5-------| 
A|-0-0----0-0-----0-0-----5-7---7-----| 
D|------------------------------------| 


[Solo]

(Gtr 2) under the lead
 
E|------------------------------| 
B|------------------------------| 
G|------------------------------| 
D|-2-2---2-2---2-2--------------| 
A|-2-2---2-2---2-2--------0-2-3-| 
D|-0-0---0-0---0-0--0-2-3-------| 

E|------------------------------| 
B|------------------------------| 
G|------------------------------| 
D|-2-2---2-2---2-2--------------| 
A|-2-2---2-2---2-2----------0-3-| 
D|-0-0---0-0---0-0--0-2-3-0-----| 

(Gtr 1)      ride the bar in both directions   

E|------------|----------------|------------|
B|-8~-7~-5~---|----------------|------------|
G|------------12h15h12h15h12h15h-----12^15^-|
D|------------------------------------------|
A|------------------------------------------|
D|------------------------------------------|

(Gtr 2)

E|--------------------------------| 
B|--------------------------------| 
G|--------------------------------| 
D|-2-2---2-2---2-2----------------| 
A|-2-2---2-2---2-2----------0-2-3-| 
D|-0-0---0-0---0-0---0-2-3--------| 

(Gtr 1)

E|------------------------------------------|
B|-8^---10^---------------------------------|
G|----------12^-2----2^-2^-2^-2^-2^-2^-2-6/-|
D|-------------------------------------2-6/-|
A|-------------------------------------0-4/-|
D|------------------------------------------|

  (Gtr 2)
E|-----------------| 
B|-----------------| 
G|-----------------| 
D|-2-2---2-2---2-2-| 
A|-2-2---2-2---2-2-| 
D|-0-0---0-0---0-0-| 


[Verse]

(slide from end of solo, into the regular verse)

E|----------------| 
B|----------------| 
G|-7/5-2--5-7-5-2-| 
D|-7/5-2--5-7-5-2-| 
A|-5/3-0--3-5-3-0-| 
D|----------------|(x4)

(on 4th play this)

E|----------------------------------| 
B|------------------------------3---| 
G|-7-5-2--5-7-2-2-5-5---5-------0---| 
D|-7-5-2--5-7-2-2-5-5---5-----------| 
A|-5-3-0--3-5-0-0-3-3-3---3-2-2---2-| 
D|----------------------------------| 

E|-------------------------------------| 
B|-------------------------------------| 
G|-----5------7-------5------------7-5-| 
D|-----5------7-------5-------5------5-| 
A|-0-0----0-0-----0-0-----5-7---7------| 
D|-------------------------------------| 

E|--------------------------------------| 
B|--------------------------------------| 
G|-----5-------7-------5-----------7-5^-| 
D|-----5-------7-------5-------5--------| 
A|-0-0-----0-0-----0-0-----5-7---7------| 
D|--------------------------------------| 


[Break]
 
E|------------------------------------------------| 
B|------------------------------------------------| 
G|----------7-5~------5-----7-----5-----------7-5-| 
D|------5-------------5-----7-----5------5------5-| 
A|-\5-7---7-------0-0---0-0---0-0---5-7---7-------| 
D|------------------------------------------------| 

E|---------------------------------------| 
B|---------------------------------------|
G|-----5-------7-------5------------7-5^-|
D|-----5-------7-------5-------5---------|
A|-0-0-----0-0-----0-0-----5-7---7-------| 
D|---------------------------------------|


[Outro]
 
E|--------------------------------| 
B|--------------------------------| 
G|--------4/5------------6/7------| 
D|--------4/5------------6/7------| 
A|-0-0-0--2/3--0-0-0-0-0-4/5--0-0-| 
D|--------------------------------|(x3) 

(fade)

E|------------------------------| 
B|------------------------------| 
G|--------4/5---------------7-5-| 
D|--------4/5----------5------5-| 
A|-0-0-0--2/3--0-0-5-7---7------| 
D|------------------------------| 


[Lead over outro] 

(fade halfway through on the 2nd time)

E|-----------------------------| 
B|-11~--10~--8~---11~--13~--8~-| 
G|-----------------------------|
D|-----------------------------|
A|-----------------------------|
D|-----------------------------|(x2)

************************************

| h  Hammer-on
| /  Slide up
| \  Slide down
| ~  Vibrato
|  ^  use bar

************************************

            
            
Suggest correction
Creating personal tab
Creating personal tab
You can edit any tab online and save it as your Personal.

You can edit, replace or remove any tab part or add personal notes – all changes will be seen only by you.

Personal tabs can be accessed anytime from any device, even offline.
Learn more »
comments
print report bad tab
73 comments total. Showing first comments.
0 reply
metal_man696 10 Aug 20, 2005 08:00 PM

sounds really good! also you can throw in some pinch harmonics during the end part of the chorus listen the the song and youll see what i mean

0 reply
ArsonistInBlack 31 Jan 23, 2006 03:23 AM

rock on, I didn't find anything wrong with this tab. thanks man.

0 reply
doug_fresh 10 Jun 03, 2006 04:36 AM

nice tab, sounds good

guest
Wanna post a correction for this tab? Suggest correction