Oops, an error
Loading. Please wait.

Watcher bass

1,301 views 18 this week
no commentswrite comment
1 2 3 4 5
3 more votes to show rating
add to favorites
×
Save as Personal and add changes to this tab that will be seen only by you. Learn more ›
×
You can save this tab as Personal to edit and correct it or add notes. All changes will be seen only by you. Learn more »
launch autoscroll
font size
0
reset
guitar tuner
edit
Autoscroll
slow
fast
+/-
esc
set tempo
stop
Difficulty
I can only find shitty versions of this tab on the net. This is how it is played.

Intro

Hold down the notes on the D string while hitting the open A
G------------------------------------------------------------------|
D----------7------5-------7-----5----------------------------------|
A-----0-0-----0-0-----0-0---0-0---0-0-5-6-7------------------------|
E------------------------------------------------------------------|


Verse 1
Lemmy plays Open A over vocals- listen to the song
G----------------------5--------------------------------------|
D------777-5-555-5h6h7---7-5-5h7p5----------------------------|
A--0-0-----------------------------7--------------------------|
E-------------------------------------------------------------|

Verse 2
Variation on the first verse riff, just two and a half steps up.
Open D
G--------------------------------10---------------------------|
D-0-0--121212-10-101010-10h11h12----12-10-10h12p10------------|
A--------------------------------------------------12---------|
E-------------------------------------------------------------|

Solo backing
Root notes of what the guitar plays
G----------------------------------|
D----------------------------------|
A----------------------------------|
E-5-5555553-3333331-1111113-333333-|

            
            
Suggest correction
Creating personal tab
Creating personal tab
You can edit any tab online and save it as your Personal.

You can edit, replace or remove any tab part or add personal notes – all changes will be seen only by you.

Personal tabs can be accessed anytime from any device, even offline.
Learn more »
Give kudos to tab author, rate the tab!
1 2 3 4 5
comments
print report bad tab
guest
Wanna post a correction for this tab? Suggest correction