Oops, an error
Loading. Please wait.

Du Willst Mich Kuessen bass

version 1
version 1

Whole song

Interactive

5,175 views 3 this week
no commentswrite comment
1 2 3 4 5
x 4
add to favorites
×
Save as Personal and add changes to this tab that will be seen only by you. Learn more ›
×
You can save this tab as Personal to edit and correct it or add notes. All changes will be seen only by you. Learn more »
launch autoscroll
font size
0
reset
guitar tuner
edit
Autoscroll
slow
fast
+/-
esc
set tempo
stop
Author
Du willst mich küssen - Bass Tab - Die Aerzte

Bass-Intro:

G :----------------|----------------|----------------|----------------|
D :2-x-2-x-2---4---|----------------|2-x-2-x-2---4---|----------------|
A :--------------2-|x-2---2-4-2-4-2-|--------------2-|x-2---2-4-2-4-2-|
E :----------------|----------------|----------------|----------------|

G :------2---------|----------------|------------------|
D :----2-------2---|------4---------|------------------|
A :0---------------|----4-------4---|2-x-2-x-2-p0----2-|
E :----------------|2---------------|-------------h2---|

G :------------------|----------------|----------------|----------------|
D :------------------|2-x-2-x-2---4---|----------------|2-x-2-x-2---4---|
A :x-2---2-h4-2-h4-2-|--------------2-|x-2---2-4-2-4-2-|--------------2-|
E :------------------|----------------|----------------|----------------|
                      Ich war gerade...

G :----------------|------2---------|----------------|----------------|
D :----------------|----2-------2---|------4---------|----------------|
A :x-2---2-4-2-4-2-|0---------------|----4-------4---|5-x-5-x-4---4-2-|
E :----------------|----------------|2---------------|----------------|

G :------------------|
D :------------------|
A :x-2---2-h4-2-h4-2-|
E :------------------|

1. STROPHE (nur Bass)

Ich war gerade auf dem Weg in die Stadtbibliothek
da habe ich mein Herz verloren.
Ich sah Dich steh'n am Wegesrand mit einem Buch in Deiner Hand.
Ich war sofort verknallt bis über beide Ohren.

c#                             g#  
Wann darf ich Dich wiedersehen, hab ich gefragt.
A                     H
Deine Antwort war: am besten heute nacht.
        c#                        g#
Und bei klassischer Musik und bei Kerzenschein
         A                            H
wolltest Du mich dann verführen, aber ich - ich sagte Nein!


REFRAIN:
               E  F#7       A               H 
Du willst mich küssen, doch das geht mir zu schnell
            E  F#7          A         H 
Du solltest wissen, ich bin intellektuell.
c#             g#      A            H
Du willst mich küssen, mitten ins Gesicht,
                E    F#7  A             H 
doch ob Du mich lieb hast, das weiß ich nicht.
             A  
Das weiß ich nicht (das weiß ich nicht)
             c#
Das weiß ich nicht (das weiß ich nicht)
             A
Das weiß ich nicht (das weiß ich nicht)
             H
Das weiß ich ni----cht.


         (Bass wie im Intro)
2.STRoPHE
Ein Jahr war schnell vorbei, dann traf ich Dich in der Bücherei
Du sagst, Du würdest jetzt studieren.
Abends bist Du zu mir gekommen, ich hatte extra ein Bad genommen,
um Dir mit meinem Wohlgeruch zu imponieren.

Kaum warst Du da, begannen wir schon 
mit einer platonischen Diskussion,
doch später in der Nacht hab' ich dann entdeckt,
was hinter der Studentinnenfassade steckt.....

REF.: Du willst mich...
REF. (1. Hälfte)

(Die Tabs sind das meist bei Konzerten gespielte Live-Ende. Die
Studioversion hat nur die Akkordbegleitung E-F#7-A-H--E7)


Doch ob Du mich....

   E                        F#7
E :------------------------|------------------------|
B :------------------------|------------------------|
G :------------------------|------------------------|
D :----------------2-------|------------------------|
A :--------0-2-2-4---4-2---|4---4-4-6-4-4-x-4-4-5-6-|
E :0---0-4---------------0-|2---2-2-2-2-2-x-2-2-3-4-|
   lieb...                  hast...

   A                        H 
E :------------------------|------------------------|
B :------------------------|------------------------|
G :------------------------|------------------------|
D :------------------------|------------------------|
A :7---7-9---7-7---7-9---7-|9---9-7---7-9-----------|
E :5---5-5---5-5---5-5---5-|7---7-7---7-7-----3~----|
       das weiß ich         nicht, das weiß   ich

   E                              G   E7   
E :------------------------|----------0-------------|
B :------------------------|----------3-------------|
G :------------------------|----------1-------------|
D :------------------------|------5-x-2-------------|
A :7-7-7-5-5-5-4-4-4-3-5-3-|2x----5-x-2-------------|
E :------------------------|----------0-------------|
   nicht.

            
            
Suggest correction
Creating personal tab
Creating personal tab
You can edit any tab online and save it as your Personal.

You can edit, replace or remove any tab part or add personal notes – all changes will be seen only by you.

Personal tabs can be accessed anytime from any device, even offline.
Learn more »
comments
print report bad tab
guest
You may want to rate the tab now too:
select rating
Wanna post a correction for this tab? Suggest correction