Oops, an error
Loading. Please wait.

Hurra bass

version 1
version 1

Whole song

Interactive

5,367 views 1 this week
no commentswrite comment
1 2 3 4 5
2 more votes to show rating
add to favorites
×
Save as Personal and add changes to this tab that will be seen only by you. Learn more ›
×
You can save this tab as Personal to edit and correct it or add notes. All changes will be seen only by you. Learn more »
launch autoscroll
font size
0
reset
guitar tuner
edit
Autoscroll
slow
fast
+/-
esc
set tempo
stop
Author
Hurra - Bass Tab - Die Aerzte



Intro:

G:----------------|------------------|--------------------|--------------------|
D:----------0--0--|------------0--0--|--------------0--0--|--------------0--0--|
A:-0--0-----------|---0--0-----------|----0--0------------|----0--0------------|
E:----------------|------------------|2b3-------2b3-------|2b3-------2b3-------|


G:-7--6----------|----------------------|--------7--6----------|----------------------|
D:-------9--7----|7--7--7-9-/11/9--7----|7--7--7-------9--7----|7--7--7-9-/11/9--7----|
A:-------------9-|--------------------9-|--------------------9-|--------------------9-|
E:---------------|----------------------|----------------------|----------------------|


G:--------7--6----------|----------------------|--------7--6----------|----------------------|
D:7--7--7-------9--7----|7--7--7-9-/11/9--7----|7--7--7-------9--7----|7--7--7-9-/11/9--7----|
A:--------------------9-|--------------------9-|--------------------9-|--------------------9-|
E:----------------------|----------------------|----------------------|----------------------|


G:--------7--6--------|----------------|
D:7--7--7-------9--7--|--0--0--0--0--0-|
A:--------------------|----------------|
E:--------------------|----------------|


1.Strophe:

Weißt Du noch, wie's früher war?  Früher war alles schlecht.
G:-----------------|-----------------|
D:---------0---0-0-|-----------------|
A:-----------------|-0---0---0---0-0-|
E:-2---2-----------|-----------------|

Der Himmel grau, die Menschen mies - Die Welt war furchtbar ungerecht.
G:-----------------|-----------------|
D:---------0---0-0-|-----------------|
A:-----------------|-0---0---0---0-0-|
E:-2---2-----------|-----------------|

Doch dann, dann kam die Wende - Unser Leid war zu Ende.
G:-----------------------------|
D:-----------------------------|
A:-2-2-2-2-2-2-2-2-2-2---0-0---|
E:-----------------------------|


Refrain:

Hipp Hipp Hurra, alles ist super, alles ist wunderbar.
G:---------------------------------|---------------------------------|
D:---------------------------------|-----------------0-0-0-0-0-0-0-0-|
A:-0-0-0-0-0-0-0-0-----------------|---------------------------------|
E:-----------------0-0-0-0-0-0-0-0-|-2-2-2-2-2-2-2-2-----------------|

Hipp Hipp Hurra, alles ist besser, als es damals war.
G:---------------------------------|---------------------------------|----------------|
D:---------------------------------|-----------------0-0-0-0-0-0-0-0-|--0--0--0--0--0-|
A:-0-0-0-0-0-0-0-0-----------------|---------------------------------|----------------|
E:-----------------0-0-0-0-0-0-0-0-|-2-2-2-2-2-2-2-2-----------------|----------------|


2.Strophe:

Früher waren wir alle traurig,  wir weinten jeden Tag.
G:-----------------|-----------------|
D:---------0---0-0-|-----------------|
A:-----------------|-0---0---0---0-0-|
E:-2---2-----------|-----------------|

Es nieselte, wir waren oft krank - Jetzt ist alles total stark.
G:-----------------|-----------------|
D:---------0---0-0-|-----------------|
A:-----------------|-0---0---0---0-0-|
E:-2---2-----------|-----------------|

Jetzt lachen immer alle und reißen ständig Witze.
G:---------------------------------|---------------------------------|
D:-0-0-0-0-0-0-0-0-0-0-0-0-0-0-0-0-|---------------------------------|
A:---------------------------------|-0-0-0-0-0-0-0-0-0-0-0-0-0-0-0-0-|
E:---------------------------------|---------------------------------|

Wir sind nur noch am Baden gehen - Wejen die Hitze
G:---------------------------------|---------------------------------|
D:-0-0-0-0-0-0-0-0-0-0-0-0-0-0-0-0-|---------------------------------|
A:---------------------------------|---------------------------------|
E:---------------------------------|-0-0-0-0-0-0-0-0-0-0-0-0-0-0-0-0-|

Und ich find es wirklich scharf - Dass ich das noch erleben darf.
G:-----------------------------|
D:-----------------------------|
A:-2-2-2-2-2-2-2-2-2-2---0-0---|
E:-----------------------------|


Refrain:

Hipp Hipp Hurra, alles ist super, alles ist wunderbar.
G:---------------------------------|---------------------------------|
D:---------------------------------|-----------------0-0-0-0-0-0-0-0-|
A:-0-0-0-0-0-0-0-0-----------------|---------------------------------|
E:-----------------0-0-0-0-0-0-0-0-|-2-2-2-2-2-2-2-2-----------------|

Hipp Hipp Hurra, alles ist besser, als es gestern war.
G:---------------------------------|---------------------------------|
D:---------------------------------|-----------------0-0-0-0-0-0-0-0-|
A:-0-0-0-0-0-0-0-0-----------------|---------------------------------|
E:-----------------0-0-0-0-0-0-0-0-|-2-2-2-2-2-2-2-2-----------------|

Alle sind happy, alle sind glücklich, alle sind froh.
G:---------------------------------|---------------------------------|
D:---------------------------------|-0-0-0-0-0-0-0-0-----------------|
A:-2-2-2-2-2-2-2-2-0-0-0-0-0-0-0-0-|---------------------------------|
E:---------------------------------|-----------------2-2-2-2-2-2-2-2-|

Und überall wo man hinguckt, Liebe und Frieden und so.
G:---------------------------------|-----------------|
D:---------------------------------|-0-0-------------|
A:-2-2-2-2-2-2-2-2-2-2-2-2-2-2-2-2-|-------------0-0-|
E:---------------------------------|-------0-0-------|


Interlude:
  
G:----------------------|--------7--6----------|----------------------|--------7--6--------|
D:7--7--7-9-/11/9--7----|7--7--7-------9--7----|7--7--7-9-/11/9--7----|7--7--7-------9--7--|
A:--------------------9-|--------------------9-|--------------------9-|--------------------|
E:----------------------|----------------------|----------------------|--------------------|


Solo:

G:--------------|-----------|-------------|-----------7-|-9--9--9-9-9--|-10--10-9--7-0-0-|
D:-11--11-11-11-|10--8--8---|-8-----------|-8--11--11---|--------------|-----------------|
A:--------------|---------9-|----9--9-9-9-|-------------|--------------|-----------------|
E:--------------|-----------|-------------|-------------|--------------|-----------------|

G:-10--10-9--7-0-0-|-10--10-9--7------|-12^0^12^0^12^0^12^0^12^0^12^0^14^0^14^0^14^0^14^0^14^-|
D:-----------------|-------------10-0-|-------------------------------------------------------|
A:-----------------|------------------|-------------------------------------------------------|
E:-----------------|------------------|-------------------------------------------------------|
                                         (scratch...)
G:-0^14^0^16^0^16^0^16^0^16^0^16^0^16^0^-|
D:---------------------------------------|
A:---------------------------------------|
E:---------------------------------------|


3.Strophe(nur Bass spielt):

Gestern ging es allen dreckig - Heute geht es steil bergauf.
G:---------------------------------|---------------------------------|
D:---------------------------------|-----------------0-0-0-0-0-0-0-0-|
A:-0-0-0-0-0-0-0-0-----------------|---------------------------------|
E:-----------------0-0-0-0-0-0-0-0-|-2-2-2-2-2-2-2-2-----------------|

Jeder hat 6 Richtige - Alle sind total gut drauf.
G:---------------------------------|---------------------------------|
D:---------------------------------|-----------------0-0-0-0-0-0-0-0-|
A:-0-0-0-0-0-0-0-0-----------------|---------------------------------|
E:-----------------0-0-0-0-0-0-0-0-|-2-2-2-2-2-2-2-2-----------------|

Europa, Asien,  Afrika - Australien und Amerika.
G:---------------------------------|---------------------------------|
D:---------------------------------|-----------------0-0-0-0-0-0-0-0-|
A:-0-0-0-0-0-0-0-0-----------------|---------------------------------|
E:-----------------0-0-0-0-0-0-0-0-|-2-2-2-2-2-2-2-2-----------------|

Friede, Freude, Eierkuchen - Alle singen: "Ja, ja, ja!"
G:---------------------------------|---------------------------------|
D:---------------------------------|-----------------0-0-0-0-0-0-0-0-|
A:-0-0-0-0-0-0-0-0-----------------|---------------------------------|
E:-----------------0-0-0-0-0-0-0-0-|-2-2-2-2-2-2-2-2-----------------|


Refrain (nur Gesang):
Hipp Hipp Hurra, alles ist super, alles ist wunderbar.
Hipp Hipp Hurra, alles ist besser, als es gestern war.


Outro-Refrain:
 
Hipp Hipp Hurra, alles ist super, alles ist wunderbar.
G:---------------------------------|---------------------------------|
D:---------------------------------|-----------------0-0-0-0-0-0-0-0-|
A:-0-0-0-0-0-0-0-0-----------------|---------------------------------|
E:-----------------0-0-0-0-0-0-0-0-|-2-2-2-2-2-2-2-2-----------------|

Hipp Hipp Hurra, alles ist besser, als es damals war.
G:---------------------------------|---------------------------------|
D:---------------------------------|-----------------0-0-0-0-0-0-0-0-|
A:-0-0-0-0-0-0-0-0-----------------|---------------------------------|
E:-----------------0-0-0-0-0-0-0-0-|-2-2-2-2-2-2-2-2-----------------|

Alle sind Freunde, alle sind happy, alle sind froh.
G:---------------------------------|---------------------------------|
D:---------------------------------|-0-0-0-0-0-0-0-0-----------------|
A:-2-2-2-2-2-2-2-2-4-4-4-4-4-4-4-4-|---------------------------------|
E:---------------------------------|-----------------0-0-0-0-0-0-0-0-|

Und überall wo man hinguckt, Liebe und Frieden
G:---------------------------------|-----------------|
D:---------------------------------|-0-0-------------|
A:-2-2-2-2-2-2-2-2-2-2-2-2-2-2-2-2-|-------------0-0-|
E:---------------------------------|-------0-0-------|

Und überall wo man hinguckt, Liebe und Frieden
G:---------------------------------|-----------------|
D:---------------------------------|-0-0-------------|
A:-2-2-2-2-2-2-2-2-2-2-2-2-2-2-2-2-|-------------0-0-|
E:---------------------------------|-------0-0-------|

Und überall wo man hinguckt, Liebe und Frieden und so.
G:---------------------------------|-----------------|
D:---------------------------------|-0-0-------------|
A:-2-2-2-2-2-2-2-2-2-2-2-2-2-2-2-2-|-------------0-0-|
E:---------------------------------|-------0-0-------|

A D (2x) Keyboard

            
            
Suggest correction
Creating personal tab
Creating personal tab
You can edit any tab online and save it as your Personal.

You can edit, replace or remove any tab part or add personal notes – all changes will be seen only by you.

Personal tabs can be accessed anytime from any device, even offline.
Learn more »
Give kudos to tab author, rate the tab!
1 2 3 4 5
comments
print report bad tab
guest
You may want to rate the tab now too:
select rating
Wanna post a correction for this tab? Suggest correction