Oops, an error
Loading. Please wait.

1/2 Lovesong Bass Tab

version 1
version 1

Whole song

12,921 views 9 this week
2 commentsread comments
1 2 3 4 5
excellent!
x 5
add to favorites
launch autoscroll
font size
0
reset
guitar tuner
Tab Pro tools
  • play this tab
  • loop segment
  • change instrument
  • show fretboard
  • metronome
×
Best way to learn
"1/2 Lovesong"
Autoscroll
slow
fast
+/-
esc
set tempo
stop
Contributor
Difficulty
intermediate
-------------------------------------------------------------------------------
			     1/2 Lovesong - Die Ärzte
-------------------------------------------------------------------------------

Tabbed By : WalWurst
e-mail: mkgamer24@web.de

Tuning: Standard Bass Tuning EADG

===============================================================================

Intro & 1st Verse: no bass

[Pre-Chorus 1]

G|------|------|----------|---------|------|------|---------|---------|---------|
D|------|------|----------|---------|------|------|---------|---------|---------|
A|------|-5----|-3---2--3-|-5-------|------|-5----|-3-3-3-2-|-2-2-0-0-|-0-------|
E|-3----|------|----------|-----0-2-|-3----|------|---------|---------|---3-3-3-|

[Chorus]
						(4x)
G||----------|---------|-------|-------|--------||
D||:-------2-|-4-5-----|-----5-|-------|-5-----:||
A||:-----2---|-----3---|-3-----|-3---3-|---5---:||
E||--0-3-----|---------|-------|-------|--------||

[Verse 2]

G|---------|----------|-----5----|-------|-------|---------|----------|----------|
D|---------|----------|--------7-|-------|-7-----|---------|----------|-----5--7-|
A|---------|-----2--2-|-3--------|-3-5---|-----5-|---------|-----2--2-|-3--------|
E|-0---2---|-3--------|----------|-------|-------|-0---2---|-3--------|----------|

G|-------|-------|---------|----------|-----5----|-------|-------|---------|
D|-------|-7-----|---------|----------|--------7-|-------|-7-----|---------|
A|-3-5---|-----5-|---------|-----2--2-|-3--------|-3-5---|-----5-|---------|
E|-------|-------|-0---2---|-3--------|----------|-------|-------|-0---2---|

G|----------|----------|----------|-4---------|
D|----------|-----5----|----------|----7--5-7-|
A|-----2--2-|-3------3-|-5--5-5-5-|-----------|
E|-3--------|----------|----------|-----------|

[Pre-Chorus 2]

G|---------|----------|----------|---------|---------|----------|---------|---------|
D|---------|----7-5---|----------|---------|---------|----7-5---|---------|---------|
A|-----2-3-|-5------5-|-3---2--3-|-5-------|-----2-3-|-5------5-|-3-3-3-2-|-2-2-0-0-|
E|-3-------|----------|----------|-----0-2-|-3-------|----------|---------|---------|

G|---------|
D|---------|
A|-0-------|
E|---3-3-3-|

-Chorus

[Bridge]
									      (2x)
G||----------|--------|---------|--------|---------|--------|---------|---------||
D||:-------2-|-(2)----|-------2-|-(2)----|-------2-|-(2)----|-------2-|-(2)----:||
A||:---------|--------|---------|--------|---------|--------|-0-0-0---|--------:||
E||--0-0-0---|--------|-2-2-2---|--------|-3-3-3---|--------|---------|---------||

G|---------|---------|---------|------------------|--------------|---------|
D|---------|---------|---------|------------------|--------------|---------|
A|-3-3-3-3-|-3-3-3-3-|-3-3-3-3-|-5/12-12/5-5-5/12-|-12/5-5-5/12--|-(12)----|
E|---------|---------|---------|------------------|--------------|---------|

Verse 3: no bass

-Pre-Chorus 2

-Chorus

[Outro]

						(2x)
G||----------|---------|-------|-------|--------||------|---------|------|--------|
D||:-------2-|-4-5-----|-----5-|-------|-5-----:||------|---------|------|--------|
A||:-----2---|-----3---|-3-----|-3---3-|---5---:||------|-------0-/-3----|-(3)----|
E||--0-3-----|---------|-------|-------|--------||-0----|-(0)-----|------|--------|

===============================================================================

| /  slide up
| \  slide down
| h  hammer-on
| p  pull-off
| ~  vibrato
| +  harmonic
| x  Mute note
|()  Hold note
===============================================================================
comments
print report bad tab
2 comments total.
+1 reply
leonardc95 wrote on March 3 2009, 12:34 pm

in the intro he plays 0 2 3 on the A string i think

0 reply
boby9933 wrote on August 29 2014, 07:37 am

that's right

I want to post or [tab]
guest
You may want to rate the tab now too:
select rating
Please do not post tabs as comments. Select "correction" instead!