Oops, an error
Loading. Please wait.

So You Wanna Be A Cop bass

version 1
version 1

Whole song

Interactive

1,005 views 1 this week
no commentswrite comment
1 2 3 4 5
3 more votes to show rating
add to favorites
×
Save as Personal and add changes to this tab that will be seen only by you. Learn more ›
×
You can save this tab as Personal to edit and correct it or add notes. All changes will be seen only by you. Learn more »
launch autoscroll
font size
0
reset
guitar tuner
edit
Autoscroll
slow
fast
+/-
esc
set tempo
stop
Author
Difficulty
Bass Tabs for song: So You Wanna Be A Cop 2


STZA's VERSE x1 EZRA's VERSE x1 STZA's VERSE x1 EZRA's and STZA's 2nd VERSE x8 PRE 
x1 CHORUS x1 OUTRO 1X

 note ~(let it ring)

standard tunging  E A D G
 (1)&(2) is the same riff it was to long to put on here

(1)
G|---9--9--9--9-|
D|-77-77-77-77--|
A|--------------|
E|--------------|
(2)
G|----11--11--11--11------15----15----15----15-------13----13----13----13---|
D|7-99--99--99--99--9-1313--1313--1313--1313--13-1111--1111--1111--1111--11-|
A|--------------------------------------------------------------------------|
E|--------------------------------------------------------------------------|

then this x 1
|----------------------------|
|-7777777-13-13-13-13-13-13--|
|----------------------------|
|----------------------------|

PRE VERSE   x8
|---------------------|
|---------------------|
|-0000-2222-----------|
|----------0000-2222--|


|---------------------------|
|---------------------------|
|-0~-2~-------0~-2~---------|
|-------2~-0~-------2~-0~---|

    (the beat is faster)
|--------------------------|
|--------------------------|
|-0-2---0-2---0-2---0-2----|
|----2-0---2-0---2-0---2-0-|

     8X
|--------------------|
|--------------------|
|-0000-2222----------|
|----------0000-2222-|

PRE CHORUS
|-----------------------------------------------|
|------------222222222-4-2----------22222222222-|
|-55555555545-------------5555555555------------|
|-----------------------------------------------|

CHORUS
|---------2------|-------------|
|----------2-4-2-|-------------|
|-0-2-4-5--------|-55555555555-|
|----------------|-------------|


|---------------------------------|-------------------------|
|---------------------------------|-------------------------|
|-0~--2~--5~4~-2~-4~-5-555555555--|-0000-2222------------0~-|
|---------------------------------|----------2222-0000------|

            
            
Suggest correction
Creating personal tab
Creating personal tab
You can edit any tab online and save it as your Personal.

You can edit, replace or remove any tab part or add personal notes – all changes will be seen only by you.

Personal tabs can be accessed anytime from any device, even offline.
Learn more »
Give kudos to tab author, rate the tab!
1 2 3 4 5
comments
print report bad tab
guest
You may want to rate the tab now too:
select rating
Wanna post a correction for this tab? Suggest correction