Oops, an error
Loading. Please wait.

Red Hot bass

version 2
version 2

Whole song

Interactive

2,319 views 3 this week
1 commentread comment
1 2 3 4 5
3 more votes to show rating
add to favorites
×
Save as Personal and add changes to this tab that will be seen only by you. Learn more ›
×
You can save this tab as Personal to edit and correct it or add notes. All changes will be seen only by you. Learn more »
launch autoscroll
font size
0
reset
guitar tuner
edit
Autoscroll
slow
fast
+/-
esc
set tempo
stop
Author
Difficulty
Band: Mötley Crüe
Music and Lyrics: Nikki Sixx, Vince Neil and Mick Mars
Bassist: Nikki Sixx
Tabber: Amin Harchaoui [GER]

Hi again!
Well, I guess I've tasted blood haha. This is one of my Mötley Crüe favourites (it's 
one of their favourite tunes btw). The bass is very dominant in this song compared with the 
and I think it' fun playing it.
Though Nikki's bass is always in D-G-C-F I've tabbed this in standard-tuning, it works flawlessely

Part I

3x
|-----------------|-----------------|
|-----------------|-----------------|
|-3-5-5-5-5-5-5-5-|-5-5-5-5-5-5-5-5-|
|-----------------|-----------------|


Part II

|-----------------|-----------------|-----------------|
|-----------------|-----------------|-----------------|
|-3-3-3-3-3-3-3-3-|-3-3-3-3-3-3-4-4-|-5-5-5-5-5-5-5-5-|
|-----------------|-----------------|-----------------|


[NOTE: Live he plays the whole thing, only god knows why, in 1/4 only. If you don't 
check this out:
http://www.youtube.com/watch?v=sV77cvBo4BE
If you ask me it's very lame, but if you like it...]


Part I 3x
Part II


Part III

3x
|-----------------|------------|
|-----------------|-3---3---3--|
|-3-5-5-5-5-5-5-5-|------------|
|-----------------|------------|


Part IV
|-----------------|------------|
|-----------------|-3---3------|
|-3-5-5-5-5-5-5-5-|---------3--|
|-----------------|------------|


Part V: Verse [NOTE: It's very similar to the Intro, but this time you play along with 
drums. It's only about half as fast as the Intro except from the 7th and 8th bar.]


|-------------|--------------|-------------|--------------|
|-------------|--------------|-------------|--------------|
|-5--5--5--5--|-5--5-5--5-3--|-5--5--5--5--|-5--5-5--5-5--|
|-------------|--------------|-------------|--------------|

|------------|---------------|-----------------|------------|
|------------|---------------|-----------------|-3---3------|
|-3---3---3--|-(3)--3--3--4--|-5-5-5-5-5-5-5-5-|---------3--|
|------------|---------------|-----------------|------------|

|-------------|--------------|-------------|--------------|
|-------------|--------------|-------------|--------------|
|-5--5--5--5--|-5--5-5--5-3--|-5--5--5--5--|-5--5-5--5-5--|
|-------------|--------------|-------------|--------------|

|------------|---------------|-----------------|
|------------|---------------|-----------------|
|-3---3---3--|-(3)--3--3--4--|-5---------------|
|------------|---------------|-----------------|


Part VI: Bridge [NOTE: This is the f'n best part of the whole song ;)]

1x
|------------|------------|------------|-----------------|---------------|
|------------|-----0---3--|-----2---5--|-----------------|---------------|
|------5--3--|-1----------|-3----------|-3-5-5-5-5-5-5-5-|-5-5-5-5-5--3--|
|------------|------------|------------|-----------------|---------------|

2x
|------------|------------|-----------------|---------------|
|-----0---3--|-----2---5--|-----------------|---------------|
|-1----------|-3----------|-3-5-5-5-5-5-5-5-|-5-5-5-5-5--3--|
|------------|------------|-----------------|---------------|

1x [NOTE: Just play along with the guitar, I don't know what to do else ^^]
|------------|------------|-----------------|----------------|
|-----0---3--|------------|-----------------|----------------|
|-1----------|-----4---7--|-----------------|----------------|
|------------|-5----------|-3--3-3-3-3-3-3--|-6-3-3-6-3-3-6--|

|-----------------|-------------|
|-----------------|-------------|
|-----------------|-------------|
|-3-3-3-3-3-3-3-3-|-3-----------|

Part V: Solo [NOTE: This is regularily, but live he only repeats the Chorus-part, both works]

3x
|-------------|--------------|-------------|--------------|
|-------------|--------------|-------------|--------------|
|-1--1--1--1--|-3--3-3--3-3--|-5--5--5--5--|--5--5--5--3--|
|-------------|--------------|-------------|--------------|

1x
|------------|------------|-----------------|----------------|
|-----0---3--|------------|-----------------|----------------|
|-1----------|-----4---7--|-----------------|----------------|
|------------|-5----------|-3--3-3-3-3-3-3--|-6-3-3-6-3-3-6--|

|-----------------|-------------|
|-----------------|-------------|
|-----------------|-------------|
|-3-3-3-3-3-3-3-3-|-3-----------|


Part VI: Fade Out

4x
|---------------|------------|
|---------------|-3---3---3--|
|-3-------------|------------|
|---------------|------------|

That's it.

Any questions or comments: harchaoui@arcor.de

            
            
Suggest correction
Creating personal tab
Creating personal tab
You can edit any tab online and save it as your Personal.

You can edit, replace or remove any tab part or add personal notes – all changes will be seen only by you.

Personal tabs can be accessed anytime from any device, even offline.
Learn more »
Give kudos to tab author, rate the tab!
1 2 3 4 5
comments
print report bad tab
1 comment total.
0 reply
Cycle of Pain 52 Aug 18, 2007 09:49 AM

I've made a mistake concerning Part VI: You play D instead of C.

guest
You may want to rate the tab now too:
select rating
Wanna post a correction for this tab? Suggest correction