Oops, an error
Loading. Please wait.

Mach Die Augen Zu bass

version 1
version 1

Whole song

Interactive

4,926 views 3 this week
no commentswrite comment
1 2 3 4 5
x 3
add to favorites
×
Save as Personal and add changes to this tab that will be seen only by you. Learn more ›
×
You can save this tab as Personal to edit and correct it or add notes. All changes will be seen only by you. Learn more »
launch autoscroll
font size
0
reset
guitar tuner
edit
Autoscroll
slow
fast
+/-
esc
set tempo
stop
Author
Difficulty
                     Die Aerzte - Mach die Augen zu



Intro: kein Bass

1.Strophe:
(kein Bass)

Mach die Augen zu und küss mich
Und dann sag, dass Du mich liebst.
Ich weiss genau, es ist nicht wahr, doch ich spüre keinen Unterschied  
Wenn du Dich mir hingibst.


2.Strophe:

Mach die Augen zu und küss mich
1:-----------------|-----------------|-----------------|-----------------|
2:-----------------|-----------------|-----------------|-----------------|
3:-----------------|-----------------|-0-----------0-0-|-0-----------0-0-|
4:-2-----------2-2-|-2-----------2-2-|-----------------|-----------------|

Mach mir ruhig etwas vor.
1:-----------------|-----------------|-----------------|-----------------|
2:-----------------|-----------------|-----------------|-----------------|
3:-----------------|-----------------|-0-----------0-0-|-0-----------0-0-|
4:-2-----------2-2-|-2-----------2-2-|-----------------|-----------------|

Ich vergesse, was passiert ist und ich hoffe und ich träume Ich hätt' 
1:-----------------|-----------------|-----------------|-----------------|
2:-----------------|-----------------|-----------------|-----------------|
3:-----------------|-----------------|-2-----------2-2-|-0-----------0-0-|
4:-4-----------4-4-|-4-----------4-4-|-----------------|-----------------|

Dich noch nicht verlorn.
1:-----------------|-----------------|-----------------|
2:-----------------|-----------------|-----------------|
3:-----------------|-4-----------4-4-|-4-----------4-4-|
4:-2-----------2-2-|-----------------|-----------------|


Refrain:

Es ist mir total egal, ob Du wirklich etwas fühlst
1:-----------------|-----------------|-----------------|-----------------|
2:-----------------|-----------------|-----------------|-----------------|
3:-2-----------2-2-|-0-----------0-0-|-2-----------2-2-|-0-----------0-0-|
4:-----------------|-----------------|-----------------|-----------------|

Tu was Du willst.
1:-----------------|-----------------|
2:-----------------|-----------------|
3:-----------------|-2---------------|
4:-2-----------2-2-|-----------------|


Interlude(2x):

1:-----------------|-----------------|-----------------|-----------------|
2:-----------------|-----------------|-----------------|-----------------|
3:-----------------|-----------------|-0-0-0-0-0-0-0-0-|-0-0-0-0-0-0-0-0-|
4:-2-2-2-2-2-2-2-2-|-2-2-2-2-2-2-2-2-|-----------------|-----------------|


3.Strophe:
(genau so wie Strophe2)

Mach die Augen zu und küss mich
Ist es auch das letzte Mal.
Lass uns den Moment des Abschieds noch verzögern
Lass mich jetzt noch nicht allein mit meiner Qual.


4.Strophe:
(genau so wie Strophe2)

Mach die Augen zu und küss mich
Mach mir ruhig etwas vor.
Wenn Du willst kannst, Du dann gehen, aber denk dran
Ohne Dich - ohne Dich bin ich verlorn.


Refrain:

Es ist mir absolut egal, ob Du nur noch mit mir spielst
Tu was Du willst.


Interlude(2x):

1:-----------------|-----------------|-----------------|-----------------|
2:-----------------|-----------------|-----------------|-----------------|
3:-----------------|-----------------|-0-0-0-0-0-0-0-0-|-0-0-0-0-0-0-0-0-|
4:-2-2-2-2-2-2-2-2-|-2-2-2-2-2-2-2-2-|-----------------|-----------------|


Outro:

Mach die Augen zu
1:-----------------|-----------------|
2:-----------------|-----------------|
3:-----------------|-----------------|
4:-2-----------2-2-|-2-----------2-2-|

Mach die Augen zu
1:-----------------|-----------------|
2:-----------------|-----------------|
3:-2-----------2-2-|-2-----------2-2-|
4:-----------------|-----------------|

Mach die Augen zu und küss mich
1:-----------------|-----------------|
2:-0----------0-0--|-----------------|
3:-----------------|-----------------|
4:-----------------|-0---------------|

Mach die Augen zu
1:-----------------|-----------------|
2:-----------------|-----------------|
3:-----------------|-----------------|
4:-2-----------2-2-|-2-----------2-2-|

Mach die Augen zu
1:-----------------|-----------------|
2:-----------------|-----------------|
3:-2-----------2-2-|-2-----------2-2-|
4:-----------------|-----------------|

Mach die Augen zu und küss mich
1:-----------------|-----------------|
2:-0----------0-0--|-----------------|
3:-----------------|-----------------|
4:-----------------|-0---------------|

Mach die Augen zu
1:-----------------|-----------------|
2:-----------------|-----------------|
3:-----------------|-----------------|
4:-2-----------2-2-|-2-----------2-2-|

Mach die Augen zu
1:-----------------|-----------------|
2:-----------------|-----------------|
3:-2-----------2-2-|-2-----------2-2-|
4:-----------------|-----------------|

Mach die Augen zu und küss mich
1:-----------------|-----------------|
2:-0----------0-0--|-----------------|
3:-----------------|-----------------|
4:-----------------|-0-0-------------|

            
            
Suggest correction
Creating personal tab
Creating personal tab
You can edit any tab online and save it as your Personal.

You can edit, replace or remove any tab part or add personal notes – all changes will be seen only by you.

Personal tabs can be accessed anytime from any device, even offline.
Learn more »
Give kudos to tab author, rate the tab!
1 2 3 4 5
comments
print report bad tab
guest
You may want to rate the tab now too:
select rating
Wanna post a correction for this tab? Suggest correction